» » »

Hives, Diabolic Scheme Tabs (ver.1)

Artists:  A B C D E F G H I J K L M N O P Q R S T U V W X Y Z # 

Diabolic Scheme Tabs (ver.1)

Hives Tabs
Rating:
3/5 (2 votes)
Diabolic Scheme lessons Tabs too difficult? Try these video lessons and learn fast
                
Main Riff Guitar 1
e)-------------------------------------------------------------------|
b)-------------------------------------------------------------------|
g)-----10-10-10-10-10-10-10-10-10-10-10-10---------------------------|
d)-----10-10-10-10-10-10-10-10-10-10-10-10-8-8-8-8-8-8-8-8-8-8-8-8---|
a)-----8--8--8--8--8--8--8--8--8--8--8--8--8-8-8-8-8-8-8-8-8-8-8-8---|
E)-----------------------------------------6-6-6-6-6-6-6-6-6-6-6-6---|

Main Riff Guitar 2
e)------------------------------------------------------------------|
b)------------------------------------------------------------------|
g)-----1010101010101010--------------------1414141414141414---------|
d)-----1010101010101010--------------------1414141414141414---------|
a)-----8-8-8-8-8-8-8-8---------------------1212121212121212---------|
E)------------------------------------------------------------------|

Interlude
e)-------------------|
b)-------------------|
g)-------------------|
d)-------------------|
a)-----8-----8-------|
E)-------7-5---7-5---|

e)------------------------|
b)------------------------|
g)-----1010101010101010---|
d)-----1010101010101010---|
a)-----8-8-8-8-8-8-8-8----|
E)------------------------|

Solo (I am no where NEAR 100% sure on this part)
e)--------------------------------------------------------------|
b)--------------------------------------------------------------|
g)--------------------------------------------------------------|
d)--------1414141414141414-----1010101010101010-----------------|
a)----/12-1212121212121212-----8-8-8-8-8-8-8-8-----3-5-----3----|
E)-----------------------------------------------------3-5---5--|

e)--------------------------------------------------------------|
b)---------------------------------------16-14------------------|
g)---------------------------------------------13---------------|
d)----10101010-10b-10b-10b-10^--16161616------------------------|
a)----8-8-8-8-------------------14141414------------------------|
E)--------------------------------------------------------------|

e)--------------------------------------------------------------|
b)----16-14--12-9----14/---16/---18~----------------------------|
g)--------------------------------------------------------------|
d)-----------------------------------------------0--------------|
a)---------------------------------------12~-----0--------------|
E)---------------------------------------------------------5/---|
            
Submit corrections

comments powered by Disqus
↑ Back to top | Hives Tabs for Diabolic Scheme. Lyrics for acoustic guitar and electric guitar. Tablatures and chords are parodies/interpretations of the original songs. You may use it for private study, scholarship, research or language learning purposes only