>
 >
Antidote 2

Antidote 2 Guitar Tabs

Hives - Antidote 2 chords, tabs, tablatures, lyrics

Guitar lessons | Add/correct | Request | Top 50 tabs Artists:  A B C D E F G H I J K L M N O P Q R S T U V W X Y Z 0-9

Antidote 2 Guitar Tabs – Hives

CD, Sheet music, Poster

Do you like Antidote 2? Share with your friends now
Bass TabsTabsTabs v2Tabs v3

Intro/Chorus:
E-|-6-6--6-6-6--6-6-6---------8--8--8---8--8--8--8--8-----------|
B-|-6-6--6-6-6--6-6-6--8-8-8--8--8--8---8--8--8--8--8---8-8-8---|
G-|-7-7--7-7-7--7-7-7--8-8-8--9--9--9---9--9--9--9--9---8-8-8---|x6
D-|-8-8--8-88--8-8-8--8-8-8--10-10-10--10-10-10-10-10--8-8-8---|
A-|-8-8--8-88--8-8-8--6-6-6--10-10-10--10-10-10-10-10--6-6-6---|
E-|-6-6--6-6-6--6-6-6---------8--8--8---8--8---8--8--8----------|

Then on the last one just before the verse it's this
E-|-8-
B-|-8-
G-|-9- x10 with the same timing as above, listen for the timing by
D-|-10- the way coz it changes when the second guitar and the bass
A-|-10- comes in.
E-|-8-

Verse: The other guitar plays the first three chords in this sequence before the second 
listen and you will know what I mean.

E-|-6-8--6-8---11-6-10-8--|
B-|-6-8--6-8---11-6-10-8--|
G-|-7-9--7-9---12-7-11-9--|x8 and then the Chorus, which is as
D-|-8-10-8-10--13-8-12-10-| indicated above
A-|-8-10-8-10--13-8-12-10-|
E-|-6-8--6-8---11-6-10-8--|

Note: the chorus riff is played twice with just one guitar leading up to the second 
again you need to hear it.
The Chorus should take you up to the end of the song.
One last thing, there is a little solo type thing that is played over the Outro/chorus 
here is my attempt at it as know one else has tabbed it.

E-|----------------------------|
B-|----------------------------|
G-|------------------7h9p7-----|x4 There are little improvised bits
D-|--------------7-9-------9---| after each time its played, but they
A-|-----------7-9--------------| aren't exactly necessary.
E-|-7h9-7-7-9-----------------|

That should be it down to the last detail; the last bit is just an improvisation, but 
like what they play. Enjoy, any queries, or if you want another hives song tabbed for ya 
me and I will send it to ya.





Comments


Popular Hives tabs & chords
Die,Alright! Bass Tabs
Hate To Say I Told You So 3 Bass Tabs
I Told You So 1 Bass Tabs
Thehives Bass Tabs
Bigger Hole To Fill Tabs
Get Together To Tear It Apart Tabs
Hate To Say I Told You So Easy Tabs
Love In Plaster Tabs
Two-timing Touch And Broken Bones 4 Tabs
Uptempo Venomous Poison Tabs


Song lyrics



↑ Back to top | Tablatures and chords are parodies/interpretations of the original songs. You may use it for private study, scholarship, research or language learning purposes only
© 2014 AZChords.com Contact us | Privacy policy | DMCA | Add/correct tabs | Request tabs | Top 50 tabs