» » »

Antidote Bass tabs (ver.1)

Artists:  A B C D E F G H I J K L M N O P Q R S T U V W X Y Z # 

Antidote Bass tabs (ver.1)

Hives
Rating:
5/5 (2 votes)

Hard to play? Try these video lessons and learn fast.
                The Hives - Antidote

The timing is a little different in this song, because the bass starts off at a
time than the main guitar line.  It isn't tough to figure it out so just use your ears and
be playing along with this excellent tune in no time.  As always thanks for taking the 
to check out this tab and comments, concerns, suggestions, constructive criticism are all
 Enjoy!

Intro - 0:09
G|-------------------------|
D|--111--------------------|
A|-------------------------|
E|-------------------------|

Chorus A - 0:13 (x3)
G|-------------------------------------------------|
D|-------------111--------------------111----------|
A|--11-1--111---------33--33--3--333-------11------|
E|-------------------------------------------------|

Chorus B - 0:29 (x1)
G|-----------------------------------------------|
D|-------------111-------------------------------|
A|--11-1--111---------33--33--3--333--333--------|
E|-----------------------------------------------|

Verse - 0:42 (x7)
G|--35-35-35-35--------------|
D|---------------------------|
A|---------------------------|
E|---------------------------|

On the second time through Chorus C, play the notes in the parenthesis.

Chorus C - 1:07 (x2)
G|-----------------------------------------------|
D|-------------111---------------------111-------|
A|--11-1--111---------33--33--3--333--(333)------|
E|-----------------------------------------------|

Verse - 1:22 (x3)

Just like the last time you played through Chorus C, on the final time through (8th),
the notes in parenthesis.

Chorus C - 1:33 (x8)
            
Hard to play? Try these video lessons and learn fast. | Correct




comments powered by Disqus
↑ Back to top | Tablatures and chords are parodies/interpretations of the original songs. You may use it for private study, scholarship, research or language learning purposes only