» » »

Hives, A K A I-D-I-O-T Tabs (ver.1)

Artists:  A B C D E F G H I J K L M N O P Q R S T U V W X Y Z # 

A K A I-D-I-O-T Tabs (ver.1)

Hives Tabs
Rating:
0/5 (0 votes)
A K A I-D-I-O-T lessons Tabs too difficult? Try these video lessons and learn fast
                Well, I decided to tab this song myself, 'cause the other version wasn't good.
It's a really simple song, and my tab is pefect!
The X means how many times you should play it.

Intro 1:X2
e|------------------|------------------|
B|------------------|------------------|
G|-7-7-7-9-----99---|-7-7-7-9----------|
D|-7-7-7-9---99--99-|-7-7-7-9----------|
A|-5-5-5-7-77-------|-5-5-5-7----------|
E|------------------|----------3-2-1-0-|

Intro 2:X1
e|------------------|------------------|---------|
B|------------------|------------------|---------|
G|-7-7-7-9-----99---|-7-7-7-9----------|-7-7-7-9-|
D|-7-7-7-9---99--99-|-7-7-7-9----------|-7-7-7-9-|
A|-5-5-5-7-77-------|-5-5-5-7----------|-5-5-5-7-|
E|------------------|------------------|---------|


Verse:X2
e|----------------------------------3333-2222-|
B|----------------------------------3333-2222-|
G|-999999-7-121212121212-7-55555555-4444-3333-|
D|-999999-7-121212121212-7-55555555-5555-4444-|
A|-777777-5-101010101010-5-33333333-5555-4444-|
E|----------------------------------3333-2222-| 

Chorus:X1
e|-------------------33333333-----------|
B|-------------------33333333-----------|
G|-11111111-77777777-44444444-5555-4444-|
D|-22222222-77777777-55555555-5555-4444-|
A|-22222222-55555555-55555555-3333-2222-|
E|-00000000----------33333333-----------|

e|-------------------33333333-----------------|
B|-------------------33333333-----------------|
G|-11111111-77777777-44444444-5555-4----99999-|
D|-22222222-77777777-55555555-5555-4----99999-|
A|-22222222-55555555-55555555-3333-2----77777-|
E|-00000000----------33333333-----------------|


Intro 1:X1
e|------------------|------------------|
B|------------------|------------------|
G|-7-7-7-9-----99---|-7-7-7-9----------|
D|-7-7-7-9---99--99-|-7-7-7-9----------|
A|-5-5-5-7-77-------|-5-5-5-7----------|
E|------------------|----------3-2-1-0-|

Intro 2:X1
e|------------------|------------------|---------|
B|------------------|------------------|---------|
G|-7-7-7-9-----99---|-7-7-7-9----------|-7-7-7-9-|
D|-7-7-7-9---99--99-|-7-7-7-9----------|-7-7-7-9-|
A|-5-5-5-7-77-------|-5-5-5-7----------|-5-5-5-7-|
E|------------------|------------------|---------|

Verse:X2
e|----------------------------------3333-2222-|
B|----------------------------------3333-2222-|
G|-999999-7-121212121212-7-55555555-4444-3333-|
D|-999999-7-121212121212-7-55555555-5555-4444-|
A|-777777-5-101010101010-5-33333333-5555-4444-|
E|----------------------------------3333-2222-| 

Chorus:X1
e|-------------------33333333-----------|
B|-------------------33333333-----------|
G|-11111111-77777777-44444444-5555-4444-|
D|-22222222-77777777-55555555-5555-4444-|
A|-22222222-55555555-55555555-3333-2222-|
E|-00000000----------33333333-----------|

e|-------------------33333333-----------------|
B|-------------------33333333-----------------|
G|-11111111-77777777-44444444-5555-4----99999-|
D|-22222222-77777777-55555555-5555-4----99999-|
A|-22222222-55555555-55555555-3333-2----77777-|
E|-00000000----------33333333-----------------|

Bridge:X1
e|---------|
B|---------|
G|-7-7-7-9-|
D|-7-7-7-9-|
A|-5-5-5-7-|
E|---------|

Verse:Just bass

Chorus:X1
e|-------------------33333333-----------|
B|-------------------33333333-----------|
G|-11111111-77777777-44444444-5555-4444-|
D|-22222222-77777777-55555555-5555-4444-|
A|-22222222-55555555-55555555-3333-2222-|
E|-00000000----------33333333-----------|

e|-------------------33333333-----------------|
B|-------------------33333333-----------------|
G|-11111111-77777777-44444444-5555-4----99999-|
D|-22222222-77777777-55555555-5555-4----99999-|
A|-22222222-55555555-55555555-3333-2----77777-|
E|-00000000----------33333333-----------------|

Outro:X1
e|---------|
B|---------|
G|-7-7-7-9-|
D|-7-7-7-9-|
A|-5-5-5-7-|
E|---------|

           Have Fun!
            
Submit corrections

comments powered by Disqus
↑ Back to top | Hives Tabs for A K A I-D-I-O-T. Lyrics for acoustic guitar and electric guitar. Tablatures and chords are parodies/interpretations of the original songs. You may use it for private study, scholarship, research or language learning purposes only