>
 >
Three Oh Nine

Three Oh Nine Guitar Tabs

Hit The Lights - Three Oh Nine chords, tabs, tablatures, lyrics

Guitar lessons | Add/correct | Request | Top 50 tabs Artists:  A B C D E F G H I J K L M N O P Q R S T U V W X Y Z 0-9

Three Oh Nine Guitar Tabs – Hit The Lights

CD, Sheet music, Poster

Do you like Three Oh Nine? Share with your friends now
Tabs

Drop D

Intro

Guitar 1
(0:00 - 0:12)
e|-------------------------------------------------------------------|
B|-------------------------------------------------------------------|
G|-------9-9---------------------------------9-9---------------------|
D|----7-------11-7--9-11-11--9--11-11-----7-------11-7--9-11-11--9-7-|
A|--9-----------------------------------9----------------------------|
D|-------------------------------------------------------------------|

e|-----------------------------------------------------------------------|
B|-----------------------------------------------------------------------|
G|-------9-9-------------------------------------------------------------|
D|----7-------11-7--9-11-11--9--11-11---6-6-6-6-6-6-6-6-7-7-7-7-6h7p6-4~-|  
A|--9--------------------------------------------------------------------|
D|-----------------------------------------------------------------------|

Guitar 2
(0:00 - 0:06)
e|-----------------------------------------------------|
B|-----------------------------------------------------|
G|------------------------9----------------------------|
D|-\0-0--7-7--2-2--4-4--4-9-7--0-0--7-7--2-2--4-4--4-4-|  
A|-\0-0--7-7--2-2--4-4--4-7-7--0-0--7-7--2-2--4-4--4-4-|
D|-\0-0--7-7--2-2--4-4--4---7--0-0--7-7--2-2--4-4--4-4-|

Guitar 2
(0:06 - 0:12)
e|------------------------------------------------------------|
B|------------------------------------------------------------|
G|-----------------------9------------------------------------|
D|-0-0--7-7--2-2--4-4--4-9-7-2-2-2-2-2-2-2-2-2-2-2-2-2-4-2-0~-|  
A|-0-0--7-7--2-2--4-4--4-7-7-2-2-2-2-2-2-2-2-2-2-2-2-2-4-2-0~-|
D|-0-0--7-7--2-2--4-4--4---7-2-2-2-2-2-2-2-2-2-2-2-2-2-4-2-0~-|

Verse

Guitar 2
(0:12 - 0:22)
e|-----------------------------------------------------------------|
B|-----------------------------------------------------------------|
G|--6~--4~--xx-----------------------------------------------------|
D|--6~--4~--xx--0-0-0-0-2-2--2-2-2-2-4-4--0-0-0-0-2-2--2-2-2-2-4-4-|  
A|--4~--2~--xx--0-0-0-0-2-2--2-2-2-2-4-4--0-0-0-0-2-2--2-2-2-2-4-4-|
D|--4~--2~--xx--0-0-0-0-2-2--2-2-2-2-4-4--0-0-0-0-2-2--2-2-2-2-4-4-|

Guitar 1
(0:18 - 0:28)
e|-----------------------------------------------------------------------------------------|
B|-10-10-10-10-10-10-10-10-10-10-10-10-10-10-10--------------------------------------------|
G|-9--9--9--9--9--9--9--9--9--9--9--9--9--9--9---------------------------------------------|
D|----------------------------------------------6-6-6-6-6-6-6-6-7-7-7-7-6h7p6-4~-4-4-4-4-4-|
A|-----------------------------------------------------------------------------------------|
D|-----------------------------------------------------------------------------------------|

Guitar 2
(0:23 - 0:29)
e|-----------------------------------------------|
B|-----------------------------------------------|
G|-----------------------------------------------|
D|--2-2-2-2-2-2-2-2-2-2-2-2-2-4-2-0~--0-0-0-0-0--|  
A|--2-2-2-2-2-2-2-2-2-2-2-2-2-4-2-0~--0-0-0-0-0--|
D|--2-2-2-2-2-2-2-2-2-2-2-2-2-4-2-0~--0-0-0-0-0--|

Chorus

Guitar 1
(0:29 - 0:34)
e|----------------------------------------------------------|
B|-9-9--10-10--9-9--10-10-9-10-9-9--10-10-9-9--10-10--12-10-|
G|-9-9--9--9---9-9--9--9--9-9--9-9--9--9--9-9--9--9---9--9--|
D|----------------------------------------------------------|
A|----------------------------------------------------------|
D|----------------------------------------------------------|

Guitar 2
(0:29 - 0:34)
e|--------------------------------------------------------|
B|--------------------------------------------------------|
G|------------------------9-------------------------------|
D|-\0-0--7-7--2-2--4-4--4-9----0-0--7-7--2-2-4-4-4-4-4-4--|  
A|-\0-0--7-7--2-2--4-4--4-7-7--0-0--7-7--2-2-4-4-4-4-4-4--|
D|-\0-0--7-7--2-2--4-4--4---7--0-0--7-7--2-2-4-4-4-4-4-4--|

Guitar 1
(0:34 - 0:40)
e|-------------------------------------------------------------------------|
B|--9-9-9-9-10-10-10-10-9-9-9-9-10-10-10-10-10-10-10-10-12-12-12-12--12-12-|
G|--9-9-9-9-9--9--9--9--9-9-9-9-9--9--9--9--9--9--9--9--9--9--9--9---9--9--|
D|-------------------------------------------------------------------------|
A|-------------------------------------------------------------------------|
D|-------------------------------------------------------------------------|

Guitar 2
(0:34 - 0:40)
e|-----------------------------------------------------------------------|
B|-----------------------------------------------------------------------|
G|-----------------------------------------------------------------------|
D|-0-0-0-0--7-7--2-2-2-2--4-4-4-4-4-4-4--0-0-0-0-0-0-0-0-2-2-2-2-2-2-2-2-|  
A|-0-0-0-0--7-7--2-2-2-2--4-4-4-4-4-4-4--0-0-0-0-0-0-0-0-2-2-2-2-2-2-2-2-|
D|-0-0-0-0--7-7--2-2-2-2--4-4-4-4-4-4-4--0-0-0-0-0-0-0-0-2-2-2-2-2-2-2-2-|

Verse

Guitar 2
(0:40 - 0:46)
e|-------------------------|
B|-------------------------|
G|-----7~--------7~--7-7-7-|
D|-----7~--------7~--7-7-7-|  
A|-0-0-5~----0-0-5~--5-5-5-|
D|-0-0-------0-0---------|
PM . .       . .


Guitar 1
(0:42 - 0:43)
e|---------------|
B|---------------|
G|---------------|
D|---------4-----|
A|-------5---7---|
D|---------------|

Guitar 2
(0:46 - 0:51)
e|-----------------------------------------------------------------|
B|-----------------------------------------------------------------|
G|-----------------------------------------------------------------|
D|-------------------------------------------------------------4-4-|
A|-0-0-0-0-7-7-7-7-2-2-2-2-4-4-4-4-0-0-0-0-7-7-7-7-2-2-2-2-4-4-4-4-|
D|-0-0-0-0-7-7-7-7-2-2-2-2-4-4-4-4-0-0-0-0-7-7-7-7-2-2-2-2-4-4-4-4-|
PM . . . . . . . . . . . . . . . . . . . . . . . . . . . . . .

Guitar 1
(0:52 - 1:01)
e|-----------------------------------------------------------------------------------------|
B|-10-10-10-10-10-10-10-10-10-10-10-10-10-10-10--------------------------------------------|
G|-9--9--9--9--9--9--9--9--9--9--9--9--9--9--9---------------------------------------------|
D|----------------------------------------------6-6-6-6-6-6-6-6-7-7-7-7-6h7p6-4~-4-4-4-4-4-|
A|-----------------------------------------------------------------------------------------|
D|-----------------------------------------------------------------------------------------|

Guitar 2
(0:52 - 0:57)
e|-----------------------------------------------------|
B|-----------------------------------------------------|
G|-----------------------------------------------------|
D|--0-0-0-0-2-2--2-2-2-2-4-4--0-0-0-0-2-2--2-2-2-2-4-4-|  
A|--0-0-0-0-2-2--2-2-2-2-4-4--0-0-0-0-2-2--2-2-2-2-4-4-|
D|--0-0-0-0-2-2--2-2-2-2-4-4--0-0-0-0-2-2--2-2-2-2-4-4-|

Guitar 2
(0:57 - 1:02)
e|------------------------------------------|
B|------------------------------------------|
G|------------------------------------------|
D|--2-2-2-2-2-2-2-2-2-2-2-2-2-4-2-0~--xxxx--|  
A|--2-2-2-2-2-2-2-2-2-2-2-2-2-4-2-0~--xxxx--|
D|--2-2-2-2-2-2-2-2-2-2-2-2-2-4-2-0~--xxxx--|

Chorus - Same as last Chours - (1:02 - 1:14)

Solo

Guitar 1
(1:14 - 1:26)
e|--------------------------------------------12-12-9----------------------------------|
B|--7-5-9-10-9-10-10--7-5-9-10-12-10-10--7-10---------10-9-10-10-9-10-10-7-5-----------|
G|---------------------------------------------------------------------------7-6~-4-6~-|
D|-------------------------------------------------------------------------------------|
A|-------------------------------------------------------------------------------------|
D|-------------------------------------------------------------------------------------|

Guitar 2
(1:14 - 1:19)
e|-----------------------------------------------------|
B|-----------------------------------------------------|
G|------------------------9----------------------------|
D|-\0-0--7-7--2-2--4-4--4-9-7--0-0--7-7--2-2--4-4--4-4-|  
A|-\0-0--7-7--2-2--4-4--4-7-7--0-0--7-7--2-2--4-4--4-4-|
D|-\0-0--7-7--2-2--4-4--4---7--0-0--7-7--2-2--4-4--4-4-|

Guitar 2
(1:20 - 1:25)
e|---------------------------------------------------------|
B|---------------------------------------------------------|
G|---------------------------------------------------------|
D|-0-0--7-7--2-2--4-4--4-4-4--0-0-0-0-0-0-0-0--------------|  
A|-0-0--7-7--2-2--4-4--4-4-4--0-0-0-0-0-0-0-0--0-0-0-0-0-0-|
D|-0-0--7-7--2-2--4-4--4-4-4--0-0-0-0-0-0-0-0--0-0-0-0-0-0-|
PM                                             . . . . . .

Bridge

Guitar 2
(1:25 - 1:31)
e|------------------------------------------------------------|
B|------------------------------------------------------------|
G|------------------------------------------------------------|
D|-0-0-0-0-0-0-0-0-2-2-2-2-2-2-2-2-4-4-4-4-4-4-4-4-7-7-2-4-2--|  
A|-0-0-0-0-0-0-0-0-2-2-2-2-2-2-2-2-4-4-4-4-4-4-4-4-7-7-2-4-2--|
D|-0-0-0-0-0-0-0-0-2-2-2-2-2-2-2-2-4-4-4-4-4-4-4-4-7-7-2-4-2--|

Guitar 2
(1:31 - 1:36)
e|-------------------------------------------------------|
B|-------------------------------------------------------|
G|-------------------------------------------------------|
D|-0-0-0-0-0-0-0-0-2-2-2-2-2-2-2-2-4-4-4-4-4-4-4-4-7-7-2-|  
A|-0-0-0-0-0-0-0-0-2-2-2-2-2-2-2-2-4-4-4-4-4-4-4-4-7-7-2-|
D|-0-0-0-0-0-0-0-0-2-2-2-2-2-2-2-2-4-4-4-4-4-4-4-4-7-7-2-|

Guitar 2
(1:37 - 1:42)
e|------------------------------------------------------------|
B|------------------------------------------------------------|
G|------------------------------------------------------------|
D|-0-0-0-0-0-0-0-0-2-2-2-2-2-2-2-2-4-4-4-4-4-4-4-4-7-7-2-4-2--|  
A|-0-0-0-0-0-0-0-0-2-2-2-2-2-2-2-2-4-4-4-4-4-4-4-4-7-7-2-4-2--|
D|-0-0-0-0-0-0-0-0-2-2-2-2-2-2-2-2-4-4-4-4-4-4-4-4-7-7-2-4-2--|

Guitar 2
(1:42 - 1:47)
e|-------------------------------------------------------|
B|-------------------------------------------------------|
G|-------------------------------------------------------|
D|-0-0-0-0-0-0-0-0-2-2-2-2-2-2-2-2-4-4-4-4-4-4-4-4-7-7-2-|  
A|-0-0-0-0-0-0-0-0-2-2-2-2-2-2-2-2-4-4-4-4-4-4-4-4-7-7-2-|
D|-0-0-0-0-0-0-0-0-2-2-2-2-2-2-2-2-4-4-4-4-4-4-4-4-7-7-2-|

Guitar 1
(1:48- 1:54)
e|---------------------------------------------------------|
B|---------------------------------------------------------|
G|-7-7--7-7--7-7-7--14-14-9-9--7-7--7-7--7-7-7--11-11-9-9--|
D|-x-x--x-x--x-x-x--x--x--x-x--x-x--x-x--x-x-x--x--x--x-x--|  
A|-5-5--5-5--5-5-5--12-12-7-7--5-5--5-5--5-5-5--9--9--7-7--|
D|---------------------------------------------------------|

Guitar 1
(1:54 - 2:00)
e|---------------------------------------------------------|
B|---------------------------------------------------------|
G|-7-7--7-7--7-7-7--14-14-9-9--7-7--7-7--7-7-7--11-11-9-9--|
D|-x-x--x-x--x-x-x--x--x--x-x--x-x--x-x--x-x-x--x--x--x-x--|  
A|-5-5--5-5--5-5-5--12-12-7-7--5-5--5-5--5-5-5--9--9--7-7--|
D|---------------------------------------------------------|

Guitar 2
(1:53 - 2:00)
e|--------------------------------------------------------------|
B|--------------------------------------------------------------|
G|--------------------------------------------------------------|
D|-4-4-2-2--0-0--0-0--0-0-0--7-7-2-2--0-0--0-0--0-0-0--4-4-2-2--|  
A|-4-4-2-2--0-0--0-0--0-0-0--7-7-2-2--0-0--0-0--0-0-0--4-4-2-2--|
D|-4-4-2-2--0-0--0-0--0-0-0--7-7-2-2--0-0--0-0--0-0-0--4-4-2-2--|


Outro

Guitar 1
(2:01 - 2:05)
e|-----------------------------------------------|
B|--9-9--10-10-9-10-9-9--10-10-9-9--10-10--12-10-|
G|--9-9--9--9--9-9--9-9--9--9--9-9--9--9---9--9--|
D|-----------------------------------------------|
A|-----------------------------------------------|
D|-----------------------------------------------|

Guitar 2
(2:01 - 2:05)
e|----------------------------------------------|
B|----------------------------------------------|
G|-------------9--------------------------------|
D|-2-2--4-4--4-9-7--0-0--7-7--2-2--4-4--4-4-4-4-|  
A|-2-2--4-4--4-7-7--0-0--7-7--2-2--4-4--4-4-4-4-|
D|-2-2--4-4--4---7--0-0--7-7--2-2--4-4--4-4-4-4-|

Guitar 1
(2:05 - 2:10)
e|-------------------------------------------------------------------------|
B|--9-9-9-9-10-10-10-10-9-9-9-9-10-10-10-10-10-10-10-10-12-12-12-12--12-12-|
G|--9-9-9-9-9--9--9--9--9-9-9-9-9--9--9--9--9--9--9--9--9--9--9--9---9--9--|
D|-------------------------------------------------------------------------|
A|-------------------------------------------------------------------------|
D|-------------------------------------------------------------------------|

Guitar 2
(2:05 - 2:10)
e|-----------------------------------------------------------------------|
B|-----------------------------------------------------------------------|
G|-----------------------------------------------------------------------|
D|-0-0-0-0--7-7--2-2-2-2--4-4-4-4-4-4-4--0-0-0-0-0-0-0-0-2-2-2-2-2-2-2-2-|  
A|-0-0-0-0--7-7--2-2-2-2--4-4-4-4-4-4-4--0-0-0-0-0-0-0-0-2-2-2-2-2-2-2-2-|
D|-0-0-0-0--7-7--2-2-2-2--4-4-4-4-4-4-4--0-0-0-0-0-0-0-0-2-2-2-2-2-2-2-2-|

Guitar 1
(2:10 - 2:16)
e|-----------------------------------------------------------------|
B|-----------------------------------------------------------------|
G|------9-9----------------------------9-9-------------------------|
D|----7-----11-7--9-11-11--9-11-11---7-----11-7--9-11-11--9-11-11--|
A|--9------------------------------9-------------------------------|
D|-----------------------------------------------------------------|

Guitar 2
(2:10 - 2:16)
e|-----------------------------------------------------|
B|-----------------------------------------------------|
G|------------------------9----------------------------|
D|-\0-0--7-7--2-2--4-4--4-9----0-0--7-7--2-2-4-4--4-4--|  
A|-\0-0--7-7--2-2--4-4--4-7-7--0-0--7-7--2-2-4-4--4-4--|
D|-\0-0--7-7--2-2--4-4--4---7--0-0--7-7--2-2-4-4--4-4--|

Guitar 1
(2:16 - 2:22)
e|-------------------------------------------------------------|
B|-------------------------------------------------------------|
G|------9-9----------------------------9-9---------------------|
D|----7-----11-7--9-11-11--9-11-11---7-----11-7--9-11-11--9-7--|
A|--9------------------------------9---------------------------|
D|-------------------------------------------------------------|


Guitar 2
(2:16 - 2:22)
e|----------------------------------------------------------|
B|----------------------------------------------------------|
G|----------------------------------------------------------|
D|-0-0--7-7--2-2--4-4--4-4--0-0-0-0-0-0-0-0-2-2-2-2-2-2-2-2-|  
A|-0-0--7-7--2-2--4-4--4-4--0-0-0-0-0-0-0-0-2-2-2-2-2-2-2-2-|
D|-0-0--7-7--2-2--4-4--4-4--0-0-0-0-0-0-0-0-2-2-2-2-2-2-2-2-|

Repeat these 4 lines and fade until the end





Comments


Popular Hit The Lights tabs & chords
Back Breaker Tabs
Back Breaker 1 Tabs
Earthquake Tabs
Hidden Tabs
These Backs Are Made For Stabbing 2 Tabs
Until We Get Caught 1 Tabs
Until We Get Caught Intro Tabs
Until We Get Caught Intro 1 Tabs
100 Times Ukulele
100 Times 2 Ukulele


Song lyrics



↑ Back to top | Tablatures and chords are parodies/interpretations of the original songs. You may use it for private study, scholarship, research or language learning purposes only
© 2014 AZChords.com Contact us | Privacy policy | DMCA | Add/correct tabs | Request tabs | Top 50 tabs