» » »

Hit The Lights, Stay Out Tabs (ver.1)

Artists:  A B C D E F G H I J K L M N O P Q R S T U V W X Y Z # 

Stay Out Tabs (ver.1)

Hit The Lights Tabs
 Rating:
3.6/5 (7 votes)
Stay Out lessons Tabs too difficult? Try these video lessons and learn fast
1
                This is the lead guitar..and it might not be right but its the best i can get through 
crazy distortion...i tried, and the rhythm guitar will be coming shortly :) you don't need 
in dropped d but it makes it easier with one guitar.

Intro (hold the last 3 until the start of the verse)
|-------|-----------------|-----------------|----------------------|
|-------|-----------------|-----------------|----------------------|
|-------|-----------------|-----------------|----------------------|
|---x-x-|-6-----6-----6---|-6-----6-----6---|-6-----6---------3----|
|---x-x-|---4-4---4-4---4-|---4-4---4-4---4-|---4-4---4-4-4h6------|
|---x-x-|-----------------|-----------------|----------------------|

|---------------|-----------------|-----------------|--------------------|
|---------------|-----------------|-----------------|--------------------|
|---------------|-----------------|-----------------|--------------------|
|-6-----6--3-3--|-4p3---------1/3-|-6-----6-----6---|-6-----6---------3--|
|---4-4---------|-----4/6-6\4-----|---4-4---4-4---4-|---4-4---4-4-4h6----|
|---------------|-----------------|-----------------|--------------------|

|--------------|--------|
|--------------|--------|
|--------------|--------|
|-6-----6--3-3-|-(3)----|
|---4-4--------|--------|
|--------------|--------|


Verse (I can't figure out the strum pattern here but this is the chord. The 6 is the 
note right before the octaves. Repeat each octave twice)
|-----------|--------------------|------------------------|
|------6----|--------------------|------------------------|
|-6---------|-6-6-6-13-13-10-10--|-(10)-10-10--8-8-8-8----|
|-6---------|-x-x-x--x--x--x--x--|--(x)--x--x--x-x-x-x----|
|-4---------|-4-4-4-11-11--8--8--|--(8)--8--8--6-6-6-6----|
|-----------|--------------------|------------------------|

Part 2
|-------------------------|-----------------|
|-------------------------|-----------------|
|-10-10-10-10-10-10-10-10-|-8-8-8-8-8-8-8-8-|
|--x--x--x--x--x--x--x--x-|-x-x-x-x-x-x-x-x-|
|--8--8--8--8--8--8--8--8-|-6-6-6-6-6-6-6-6-|
|-------------------------|-----------------|

|-----------------|-----------------|
|-----------------|-----------------|
|-6-6-6-6-6-6-6-6-|-8-8-8-8-8-8-8-8-|
|-x-x-x-x-x-x-x-x-|-x-x-x-x-x-x-x-x-|
|-4-4-4-4-4-4-4-4-|-6-6-6-6-6-6-6-6-|
|-----------------|-----------------|

Pre-Chorus
|--------------------|
|--------------------|
|--------------------|
|-4p3---------1/3----|
|-----4/6-6\4--------|
|--------------------|

Chorus...this part is tricky so i just did what i think is right feel free to change it! 
can play the high octaves throughout if you want to it sounds good either way just 
you another option.
|-4-----4-----4---|-4-----4-----4---|-4-----4--1-1--|
|---2-2---2-2---2-|---2-2---2-2---2-|---2-2---------|
|-----------------|-----------------|---------------|
|-----------------|-----------------|---------------|
|-----------------|-----------------|---------------|
|-----------------|-----------------|---------------|

|--------------------|
|--------------------|
|--------------------|
|-4p3---------1S3----|
|-----4S6-6S4--------|
|--------------------|
(Just repeat this until the end and hold the 3)
|-----------------|-----------------|----------------------|
|-----------------|-----------------|----------------------|
|-----------------|-----------------|----------------------|
|-6-----6-----6---|-6-----6-----6---|-6-----6---------3----|
|---4-4---4-4---4-|---4-4---4-4---4-|---4-4---4-4-4h6------|
|-----------------|-----------------|----------------------|

Introx1

Verse 2..its just these chords figure out the strumming :(
|--------------------|
|--------------------|
|--------------------|
|--6--4--------------|
|--6--4--------------|
|--6--4--------------|

Then Verse Part 2 x1

Chorus x1

Breakdown..The Chorus End on the first note then the Power Chord is the held one.
|---------|
|---------|
|---------|
|--3----4-|
|-------4-|
|-------4-|

Not Strum Patterns but these are the notes in the order they appear.
|-----------------------------------------------------|
|------6-------6-----------8--------------------------|
|------x-------x-----4-----x-----4--------------------|
|--4---4---4---4--4--4--4--6--4--4--------------------|
|--4-------4------4--4--4-----4--4--------------------|
   .       .      .     .     .

Then Verse Part 2

Chorus

Outro...just repeat until the end of song!
|------------------|---|
|------------------|---|
|-8--8-10-10-10-6--|-6-|
|-x--x--x--x--x-x--|-x-|
|-6--6--8--8--8-4--|-4-|
|------------------|---|

Thats It comment any corrections :)
            
Submit corrections

comments powered by Disqus
↑ Back to top | Hit The Lights Tabs for Stay Out. Lyrics for acoustic guitar and electric guitar. 1 Tablatures and chords are parodies/interpretations of the original songs. You may use it for private study, scholarship, research or language learning purposes only