» » »

Statues Tabs (ver.1)

Artists:  A B C D E F G H I J K L M N O P Q R S T U V W X Y Z # 

Statues Tabs (ver.1)

Hit The Lights
Rating:
4/5 (1 vote)

Hard to play? Try these video lessons and learn fast.
                This is Statues by Hit The Lights off the Skip School, Start Fights album. Played in 
D, and not very hard, but a fun song to play and learn! As with my last tab, I'm sure I'm 
95% accurate.

Intro part/first verse pt. 1:
E-------------------------------------------------------------|
B-------------------------------------------------------------|
G-------------------------------------------------------------|
D--10~~--3~~--0-0-0-0-0-0-0-0-0-0-3-3-3-3-3-5-5-5-5-5---------|
A--10~~--3~~--0-0-0-0-0-0-0-0-0-0-3-3-3-3-3-5-5-5-5-5---------|
D--10~~--3~~--0-0-0-0-0-0-0-0-0-0-3-3-3-3-3-5-5-5-5-5---------|
              .       . .       . .       . .

First verse pt. 2:
E-------------------------------------------------------------|
B-------------------------------------------------------------|
G-------------------------------------------------------------|
D--10-10-10-10-10-10-10-10-10-3-3-3-3-3-3-3-3-3-3-3-----------|
A--10-10-10-10-10-10-10-10-10-3-3-3-3-3-3-3-3-3-3-3-----------|
D--10-10-10-10-10-10-10-10-10-3-3-3-3-3-3-3-3-3-3-3-----------|
    .           .  .          . .       . .       .
E------------------------------------------------|
B------------------------------------------------|
G------------------------------------------------|
D--0-0-0-0-0-0-0-0-0-0-3-3-3-3-3-5-5-5-5-5-5-5-5-|
A--0-0-0-0-0-0-0-0-0-0-3-3-3-3-3-5-5-5-5-5-5-5-5-|
D--0-0-0-0-0-0-0-0-0-0-3-3-3-3-3-5-5-5-5-5-5-5-5-|
   .       . .       . .       . .

Prechorus:
E-----------------------------------------------|
B-----------------------------------------------|
G-----------------------------------------------|
D--7-7-7-7-7-5-5-5-5-5-3-3-3-3-3-3-3-3-3--------|
A--7-7-7-7-7-5-5-5-5-5-3-3-3-3-3-3-3-3-3--------|
D--7-7-7-7-7-5-5-5-5-5-3-3-3-3-3-3-3-3-3--------|
         . .       . .       . .       .
E-----------------------------------------------|
B-----------------------------------------------|
G-----------------------------------------------|
D--7-7-7-7-7-5-5-5-5-3~~~~~~-5~~~~~~------------|
A--7-7-7-7-7-5-5-5-5-3~~~~~~-5~~~~~~------------|
D--7-7-7-7-7-5-5-5-5-3~~~~~~-5~~~~~~------------|//PICKSLIDE!
   .       . .

Chorus:
E----------------------------------------------------------------|
B----------------------------------------------------------------|
G----------------------------------------------------------------|
D--10-10--10-10-10--10-9-9--9-5-5--5-3-3--3-3-3--3-3-3--3-3-3----|
A--10-10--10-10-10--10-9-9--9-5-5--5-3-3--3-3-3--3-3-3--3-3-3----|
D--10-10--10-10-10--10-9-9--9-5-5--5-3-3--3-3-3--3-3-3--3-3-3----|

E------------------------------------------------------------|--------|
B------------------------------------------------------------|--------|
G------------------------------------------------------------|--------|
D--3-7-7--7-7-7--7-5-5--5-10-10--10-3-3--3-3-3--3-3-3--3-3-3-|3~~~~---|
A--3-7-7--7-7-7--7-5-5--5-10-10--10-3-3--3-3-3--3-3-3--3-3-3-|3~~~~---|
D--3-7-7--7-7-7--7-5-5--5-10-10--10-3-3--3-3-3--3-3-3--3-3-3-|3~~~~---|

First postchorus:
E------------------------------------------------------------|
B------------------------------------------------------------|
G------------------------------------------------------------|
D--10-10-10-10-10-10-10-10-10-3-3-3-3-3-3-3-3-3-3------------|
A--10-10-10-10-10-10-10-10-10-3-3-3-3-3-3-3-3-3-3------------|
D--10-10-10-10-10-10-10-10-10-3-3-3-3-3-3-3-3-3-3------------|
             .  .           . .       . .       .
E------------------------------------------------|
B------------------------------------------------|
G------------------------------------------------|
D--0-0-0-0-0-0-0-0-0-0-3-3-3-3-3-5-5-5-5-5-------|
A--0-0-0-0-0-0-0-0-0-0-3-3-3-3-3-5-5-5-5-5-------|
D--0-0-0-0-0-0-0-0-0-0-3-3-3-3-3-5-5-5-5-5-------|
   .       . .       . .       . .

Second verse:
E-------------------------------------------------|
B-------------------------------------------------|
G-------------------------------------------------|
D--10~~~~-7~~~~-5~~~~-3~~~~-----------------------|
A--10~~~~-7~~~~-5~~~~-3~~~~-----------------------|
D--10~~~~-7~~~~-5~~~~-3~~~~-----------------------|

E--------------------------------------------------------------------|
B--------------------------------------------------------------------|
G--------------------------------------------------------------------|
D--10-10--10-10-10--10-10-10--10-10-10--10-7-7--7-7-7--7-7-7--7-7-7--|
A--10-10--10-10-10--10-10-10--10-10-10--10-7-7--7-7-7--7-7-7--7-7-7--|
D--10-10--10-10-10--10-10-10--10-10-10--10-7-7--7-7-7--7-7-7--7-7-7--|
    .  .   .  .  .   .  .  .   .  .  .   . . .  . . .  . . .  . . .

E--------------------------------------------------|
B--------------------------------------------------|
G--------------------------------------------------|
D--7-5-5--5-5-5--5-5-5--5-5-5--5-3~~~~~-5~~~~~-----|
A--7-5-5--5-5-5--5-5-5--5-5-5--5-3~~~~~-5~~~~~-----|
D--7-5-5--5-5-5--5-5-5--5-5-5--5-3~~~~~-5~~~~~-----|//PICKSLIDE!
   . . .  . . .  . . .  . . .  .

Prechorus
Chorus

Bridge:
E-------------------------------------------------------|
B--------5-----------5----------------------------------|
G------5-----------5----------------9-----------7h9p7p5-|
D--3-3-----3-3-3-3-----3-3-10-10-10---10-10-5-5---------|
A--3-3-----3-3-3-3-----3-3-10-10------10-10-5-5---------|
D--3-3-----3-3-3-3-----3-3-10-10------10-10-5-5---------|(Rhythm PICKSLIDES!)
   . .     . . . .     . .  .  .       .  . . .
E---------------------------------------------------------|
B--------5-----------5------------------------------------|
G------5-----------5----------------9---------------------|
D--3-3-----3-3-3-3-----3-3-10-10-10---10-10-5-5--5-7-7-7--|
A--3-3-----3-3-3-3-----3-3-10-10------10-10-5-5--5-7-7-7--|
D--3-3-----3-3-3-3-----3-3-10-10------10-10-5-5--5-7-7-7--|
   . .     . . . .     . .  .  .       .  . . .  . . . .
E--------------------------------------------------------|
B--------------------------------------------------------|
G--------------------------------------------------------|
D--3~~~~~--10-10-9-5-7~~~~~--5~-3~~~~~--10-10-9-5--------|
A--3~~~~~--10-10-9-5-7~~~~~--5~-3~~~~~--10-10-9-5--------|
D--3~~~~~--10-10-9-5-7~~~~~--5~-3~~~~~--10-10-9-5--------|

E-----------------------------------|--------------|
B-----------------------------------|--------------|
G-----------------------------------|--------------|
D--5-5-5-5-5-5-5-5-5-5-5-5-5-5-5-5--|--7~-5~-------|
A--5-5-5-5-5-5-5-5-5-5-5-5-5-5-5-5--|--7~-5~-------|
D--5-5-5-5-5-5-5-5-5-5-5-5-5-5-5-5--|--7~-5~-------|
     . .   . .   . .   . .

chorus
chorus
first verse pt.2

Legend (In order of appearance):

~ =Sustain/let ring
. =Palm mute
//PICKSLIDE! =...Well I shouldn't have to tell you
h =Hammer on
p =Pull off

And that's it. Please comment & rate, as I could use the support, thank you :)
            
Hard to play? Try these video lessons and learn fast. | Correct




comments powered by Disqus
↑ Back to top | Tablatures and chords are parodies/interpretations of the original songs. You may use it for private study, scholarship, research or language learning purposes only