» » »

Speakers Blown Bass tabs (ver.3)

Artists:  A B C D E F G H I J K L M N O P Q R S T U V W X Y Z # 

Speakers Blown Bass tabs (ver.3)

Hit The Lights
Rating:
5/5 (1 vote)

Hard to play? Try these video lessons and learn fast.
                
I think this is probably the best song on the album and it was making me mad that no one
putting bass tabs up for these guys so I gave it my best shot. The tuning is C sharp or
flat whatever you wanna call it, it is the same thing. Its pretty easy and this is my 
tab so just stick with me here.

Intro (Guitar plays first then rest of the band comes in)

G |-------------------------------------------------|
D |-------------------------------------------------|
A |-------------------------------------------------|
C#|--77-55-33333333---------------------------------|

Verse 1

G |-----------------------------------------------------------------------|
D |-----------------------------------------------------------------------|
A |55555555----------------------------55-555555--------------------------|
C#|---------33333333-77777777-33333333-----------33333333-7777777-33333333|

G |-----------------------------------|
D |-----------------------------------|
A |-----------------------------------|
C#|-55-5555-7777-33333333-5-7-33333333|

Chorus x2
G |----------------------------------------|
D |----------------------------------------|
A |55555555--------------------------------|
C#|---------33333333-000000-222222-33333333|

Verse 2

G |---------------------------------------------------------|
D |---------------------------------------------------------|
A |5-5-5-5-5-5-555------------------------------------------|
C#|----------------3-3-3-3-3-3-333-7-7-7-7-7-7-777-33333333-|

G |------------------------------------|
D |------------------------------------|
A |55-555555---------------------------|
C#|----------33333333-77777777-33333333|

G |-----------------------|
D |-----------------------|
A |-----------------------|
C#|55-55555-77777-33333333|

Chorus x2
G |----------------------------------------|
D |----------------------------------------|
A |55555555--------------------------------|
C#|---------33333333-000000-222222-33333333|

Bridge
G |-------------------------------------------------------|
D |-------------------------------------------------------|
A |-------------------------------------------------------|
C#|0-0-0-0-0-0-0-0-3-3-3-3-3-3-3-3-5-5-5-5-7-7-7-7-7-7-7-7|

G |-----------------------------------------------------------------|
D |-----------------------------------------------------------------|
A |-----------------------------------------------------------------|
C#|0-0-0-0-0-0-0-0-3-3-3-3-3-3-3-3-5-5-5-5-7-7-7-7-3-3-3-3-3-3-3-3-3|

Intro
G |----------------|
D |----------------|
A |----------------|
C#|--77-55-33333333|

Solo (You're pretty much playing the chorus under the guitar)
G |-------------------------------------|
D |-------------------------------------|
A |55555555-----------------------------|
C#|---------33333333-000000-222-33333333|

Chorus x2
G |----------------------------------------|
D |----------------------------------------|
A |55555555--------------------------------|
C#|---------33333333-000000-222222-33333333|

Outro
G |----------|
D |----------|
A |----------|
C#|3~-5~-7~~-|
            
Hard to play? Try these video lessons and learn fast. | Correct




comments powered by Disqus
↑ Back to top | Tablatures and chords are parodies/interpretations of the original songs. You may use it for private study, scholarship, research or language learning purposes only