» » »

Speakers Blown Bass tabs (ver.1)

Artists:  A B C D E F G H I J K L M N O P Q R S T U V W X Y Z # 

Speakers Blown Bass tabs (ver.1)

Hit The Lights
Rating:
2/5 (1 vote)

Tabs too difficult? Try these video lessons and learn fast.
                Yo, it's been a while since i've posted a tab, it's getting harder to do because all the
my new tab. It's pretty easy, it's for all the people who don't want to play the song 
step down. Check it out.

"I can't hear you.."
(no bass)

"Radio with the speakers blown.."
G------------------------|
D------------------------|
A------------------------|
D-66-44-2222222222222222-|

"Tonight I'm drowning.."
G------------------------------------------------------------|
D------------------------------------------------------------|
A-2222222222222----------------------------------------------|
D--------------2222222222222-666666666666666-222222222222222-|

"They play the soundtrack..."
G-----------------------------------------------------------------|
D-----------------------------------------------------------------|
A-22(pause)22222222-----------------------------------------------|
D------------------22222222222222-666666666666666-222222222222222-|

PRE CHORUS
"So turn me up.."
G-----------------------------|
D-----------------------------|
A-----------------------------|
D-4444444-6666666-22222222222-|

"When we hear hearts breaks..."
G----------------------------|
D----------------------------|
A-4444444-6666666------------|
D----------------22222222222-|

CHORUS
"Sounds like a radio with the speakers blown.."
G------------------------------------------------------------|
D------------------------------------------------------------|
A-22222222222222--------------44444444-6666666---------------|
D---------------22222222222222----------------22222222222222-|

"The record plays..."
G----------------------------------------------------------------|
D----------------------------------------------------------------|
A-2-2-2-2-2-2-2-2------------------------------------------------|
D----------------2-2-2-2-2-2-2-2-6-6-6-6-6-6-6-6-2-2-2-2-2-2-2-2-|

"They play the soundtrack..."
G-----------------------------------------------------------------|
D-----------------------------------------------------------------|
A-22(pause)22222222-----------------------------------------------|
D------------------22222222222222-666666666666666-222222222222222-|

PRE CHORUS
"So turn me up.."
G-----------------------------|
D-----------------------------|
A-----------------------------|
D-4444444-6666666-22222222222-|

"When we hear hearts breaks..."
G----------------------------|
D----------------------------|
A-4444444-6666666------------|
D----------------22222222222-|

CHORUS
"Sounds like a radio with the speakers blown.."
G------------------------------------------------------------|
D------------------------------------------------------------|
A-22222222222222--------------44444444-6666666---------------|
D---------------22222222222222----------------22222222222222-|

BRIDGE
"So i break these records.."
G-------------------------------------------------|
D-------------------------------------------------|
A-4444444444--------------------------------------|
D-----------2222222222-44444445555555-66666666666-|

"My prescriptions read like random notes.."
G-------------------------------------------------|
D-------------------------------------------------|
A-4444444444--------------------------------------|
D-----------2222222222-44444445555555-66666666666-|

"I can't hear you..."
(No bass)

"Radio with the speakers blown.."
G-------------------------------------------|
D-------------------------------------------|
A-------------------------------------------|
D-666666666666-444444444444-222222222222222-|

GUITAR SOLO
G------------------------------------------------------------|
D------------------------------------------------------------|
A-22222222222222--------------44444444-6666666---------------|
D---------------22222222222222----------------22222222222222-|

CHORUS
"Sounds like a radio with the speakers blown.."
G------------------------------------------------------------|
D------------------------------------------------------------|
A-22222222222222--------------44444444-6666666---------------|
D---------------22222222222222----------------22222222222222-|

"Treble high and the bass down low"
G------------|
D------------|
A-4~~6~~-----|
D-------2~~~-|

Thats it! it's pretty easy, and good for anyone too lazy to down down to half step,
guys, glad to make you all a new tab. Any questions, hit me up.
            
Tabs too difficult? Try these video lessons and learn fast.




comments powered by Disqus
↑ Back to top | Tablatures and chords are parodies/interpretations of the original songs. You may use it for private study, scholarship, research or language learning purposes only