>
 >
Make A Run For It

Make A Run For It Guitar Tabs

Hit The Lights - Make A Run For It chords, tabs, tablatures, lyrics

Guitar lessons | Add/correct | Request | Top 50 tabs Artists:  A B C D E F G H I J K L M N O P Q R S T U V W X Y Z 0-9

Make A Run For It Guitar Tabs – Hit The Lights

CD, Sheet music, Poster

Do you like Make A Run For It? Share with your friends now
ChordsChords v2TabsUkulele
Song Title: Make A Run Fot It; The Call Out
Standard EADGBe tuning

INTRO: (listen carefully to the song because it's very tricky...)
The first guitar plays:
e ||-----0----------|--0--------0--|-------0------|
B ||--1----1-----1--|--1-----------|------------1-|
G ||----------------|-------4----4-|--4------4----|
D ||----------------|--------------|--------------|
A ||----------------|--------------|--------------|
E ||----------------|--------------|--------------|

e ||---0----------0-|------------|---------3-3|--------------0-----||
B ||----1----1------|-1--3---0h1-|-3---1------|-1----1--3-----3--1-||
G ||----------------|------------|------------|--------------------||
D ||----------------|------------|------------|--------------------||
A ||----------------|------------|------------|--------------------||
E ||----------------|------------|------------|--------------------||
Then after:
e ||--------0---------||                    e ||----------------||
B ||-----------1------||                    B ||----------------||
G ||-----0------------|| X 2 then end on    G ||----------------||
D ||--3---------------||                    D ||-------3--------||
A ||------------------||                    A ||----------------||
E ||------------------||                    E ||----------------||
The Second guitar plays with the first: (listen to the song for the strumming pattern)
      F           Am     Em              
e ||--1----1--1---0---0--0--0----0----0-|
B ||--3----3--3---0---0--0--0----0----0-|
G ||--3----3--3---2---2--0--0----0----0-|
D ||--2----2--2---2---2--2--2----2----2-|
A ||--1----1--1---0---0--2--2----2----2-|
E ||--1----1--1---x---x--0--0----0----0-|
     F          G      Am     Em       F          Am    Em
e ||--1---1--1---3---3--0--0---0---0---1---1--1---0--0--0--0---||
B ||--3---3--3---3---3--0--0---0---0---3---3--3---0--0--0--0---||
G ||--3---3--3---4---4--2--2---0---0---3---3--3---2--2--0--0---||
D ||--2---2--2---5---5--2--2---2---2---2---2--2---2--2--2--2---||
A ||--1---1--1---3---3--0--0---2---2---1---1--1---0--0--2--2---||
E ||--1---1--1---3---3--x--x---0---0---1---1--1---x--x--0--0---||
Then play this twice:
        F                 
e ||--1--------||
B ||--3--------||
G ||--3--------||
D ||--2--------||
A ||--1--------||
E ||--1--------||

VERSE:
        F                 Am           Em         
e ||--1-----1-----1--------0-----0-----0------0----||
B ||--3-----3-----3--------0-----0-----0------0----||
G ||--3-----3-----3--------2-----2-----0------0----||  X 5 (throughout the whole verse)
D ||--2-----2-----2--------2-----2-----2------2----||
A ||--1-----1-----1--------0-----0-----2------2----||
E ||--1-----1-----1--------x-----x-----0------0----||

CHORUS:
      F           G        A     A    Am         
e ||--1----1--1---3---3----5-----5----0----0-||
B ||--3----3--3---3---3----5-----5----0----0-||
G ||--3----3--3---4---4----6-----6----0----0-||
D ||--2----2--2---5---5----7-----7----2----2-||
A ||--1----1--1---3---3----7-----7----2----2-||
E ||--1----1--1---3---3----5-----5----0----0-||
   F          Am                     F            
e ||--1---1--1---0--0---3---3----0--0---1--1---||
B ||--3---3--3---0--0---3---3----0--0---3--3---||
G ||--3---3--3---2--2---4---4----2--2---3--3---||
D ||--2---2--2---2--2---5---5----2--2---2--2---||
A ||--1---1--1---0--0---3---3----0--0---1--1---||
E ||--1---1--1---x--x---3---3----x--x---1--1---||
Then play:
e ||--------0------------------------||                                
B ||-----------1---------------------||                                
G ||-----0---------------------------||X 2 then end on      
D ||--3----------------4(vibrato)----||                               
A ||--------------2h3----------------||                                
E ||---------------------------------||                                

PLAY VERSE
THEN PLAY CHORUS

BRIDGE
      F                  Am                     
e ||--1-----1------------0-----0-------||
B ||--3-----3------------0-----0-------||
G ||--3-----3------------2-----2-------||X As many times as needed
D ||--2-----2------------2-----2-------||
A ||--1-----1------------0-----0-------||
E ||--1-----1------------x-----x-------||
GO BACK TO CHORUS

Enjoy!





Comments


Popular Hit The Lights tabs & chords
Speakers Blown 1 Bass Tabs
100 Times (Acoustic) Chords
Speakers Blown Chords
Her Eyes Say Yes Tabs
Save Your Breath 1 Tabs
Stay Out Tabs
Tell Me Where You Are Tabs
Three Oh Nine Tabs
Until We Get Caught Intro Tabs
Make A Run For It Ukulele


Song lyrics



↑ Back to top | Tablatures and chords are parodies/interpretations of the original songs. You may use it for private study, scholarship, research or language learning purposes only
© 2014 AZChords.com Contact us | Privacy policy | DMCA | Add/correct tabs | Request tabs | Top 50 tabs