>
 >
Hidden Track

Hidden Track Guitar Tabs

Hit The Lights - Hidden Track chords, tabs, tablatures, lyrics

Guitar lessons | Add/correct | Request | Top 50 tabs Artists:  A B C D E F G H I J K L M N O P Q R S T U V W X Y Z 0-9

Hidden Track Guitar Tabs – Hit The Lights

CD, Sheet music, Poster

Do you like Hidden Track? Share with your friends now
ChordsChords v2TabsUkulele
----------------------------------------------------------------------------
----------------------------------------------------------------------------

Tuning: Drop D 

Verse - Repeat x4.
e|--------------------------0----------------------------------------------|
B|--------------------------0----------------------------------------------|
G|--------------------------2----------------------------------------------|
D|--0-----------------------2-----------------2----------------------------|
A|--0-----------------------0-----------------2----------------------------|
D|--0-----------------------x-----------------2----------------------------|
   You don't know how much I adore this damp rag soaked in chloroform...

Pre-Chorus - Repeat x2
e|-------------------------------------------------------------------------|
B|-------------------------------------------------------------------------|
G|-------------------------------------------------------------------------|
D|--4----------------------0----------------2------------------------------|
A|--4----------------------0----------------2------------------------------|
D|--4----------------------0----------------2------------------------------|
   So when the blindfold starts to slip and the rope starts to rip and...

Chorus - Repeat x4
e|------------------0-------------------0----------------------------------|
B|------------------0-------------------0----------------------------------|
G|------------------2-------------------2----------------------------------|
D|--0---------------2----------4--------2---------2------------------------|
A|--0---------------0----------4--------0---------2------------------------|
D|--0---------------X----------4--------X---------2------------------------|
   But tonight, ill wait...   Until..I know      Your...

Break - Repeat x2
e|---00000-----------------------------------------------------------------|
B|---33333-----------------------------------------------------------------|
G|---22222-------------9-9\4-4/6-6-----------------------------------------|
D|---00000---x-x-x-x---x-x\x-x/x-x--------444444---222222------------------|
A|---00000---x-x-x-x---7-7\2-2/4-4--------444444---222222------------------|
D|---xxxxx---x-x-x-x----------------------444444---222222------------------|

Verse x4
Pre-Chorus x2
Chorus x4

Bridge - Repeat x6
e|-------------------------------------------------------------------------|
B|------0--------------0--------------0--------------0---------------------|
G|----2---2----------2---2----------2---2----------2---2-------------------|
D|--0-------0------4-------4------2-------2------2-------2-----------------|
A|-------------------------------------------------------------------------|
D|-------------------------------------------------------------------------|
   You'll see......

Verse x4
Chorus x3

Then play this x3
e|-------------------------------------------------------------------------|
B|-------------------------------------------------------------------------|
G|-------------------------------------------------------------------------|
D|--0-------------------------2--------------------------------------------|
A|--0-------------------------2--------------------------------------------|
D|--0-------------------------2--------------------------------------------|
....Die slowly (die slowly)  So I could be the last thing you see...

End On.
e|--0----------------------------------------------------------------------|
B|--0----------------------------------------------------------------------|
G|--2----------------------------------------------------------------------|
D|--2----------------------------------------------------------------------|
A|--0----------------------------------------------------------------------|
D|--x----------------------------------------------------------------------|
   You see.......



| /  slide up
| \  slide down
| h  hammer-on
| p  pull-off
| ~  vibrato
| +  harmonic
| x  Mute note
============================================================================





Comments


Popular Hit The Lights tabs & chords
Her Eyes Say Yes Chords
Hidden Track 1 Chords
Back Breaker Tabs
Back Breaker 1 Tabs
Cry Your Eyes Out Tabs
Hidden Tabs
Make A Run For It Tabs
Speakers Blown 1 Tabs
Statues Tabs
100 Times Ukulele


Song lyrics



↑ Back to top | Tablatures and chords are parodies/interpretations of the original songs. You may use it for private study, scholarship, research or language learning purposes only
© 2014 AZChords.com Contact us | Privacy policy | DMCA | Add/correct tabs | Request tabs | Top 50 tabs