» » »

Her Eyes Say Yes Tabs (ver.1)

Artists:  A B C D E F G H I J K L M N O P Q R S T U V W X Y Z # 

Her Eyes Say Yes Tabs (ver.1)

Hit The Lights
Rating:
2/5 (3 votes)

Hard to play? Try these video lessons and learn fast.
                -------------------------------------------------------------------------------
-------------------------------------------------------------------------------

Tuning: E

I just realised that this tab didn't exist so I've sat here for 10 mins just working the 
stuff out, feel free to work on it :)

This is also my first tab up here.

Note: play with high notes (e and B) open, regardless of if there is a note, sounds 
better :)

Intro / Verse
e|---------------------------------------------------------------------------|
B|---------------------------------------------------------------------------|
G|-44-444--22-222--11-111-11-111-----1111------------------------------------|
D|-44-444--22-222--22-222-22-222-x-3-2222------------------------------------|
A|-22-222--00-000--22-222-22-222-----2222------------------------------------|
E|---------------------------------------------------------------------------|

Chorus
e|---------------------------------------------------------------------------|
B|---------------------------------------------------------------------------|
G|-44444444-22222222-1111111111111111----------------------------------------|
D|-44444444-22222222-2222222222222222--x2------------------------------------|
A|-22222222-00000000-2222222222222222----------------------------------------|
E|---------------------------------------------------------------------------|

e|---------------------------------------------------------------------------|
B|---------------------------------------------------------------------------|
G|-44444444-22222222-11111111x2222x1111x-------------------------------------|
D|-44444444-22222222-22222222x2222x2222x--x4---------------------------------|
A|-22222222-00000000-22222222x0000x2222x-------------------------------------|
E|---------------------------------------------------------------------------|

Bridge
e|---------------------------------------------------------------------------|
B|---------------------------------------------------------------------------|
G|-77777xx-994466-2222222211111111-------------------------------------------|
D|-77777xx-xxxxxx-2222222222222222-------------------------------------------|
A|-55555xx-772244-0000000022222222-------------------------------------------|
E|---------------------------------------------------------------------------|

Outro
e|---------------------------------------------------------------------------|
B|---------------------------------------------------------------------------|
G|-44444444-22222222-111111111-2---------------------------------------------|
D|-44444444-22222222-222222222-2---------------------------------------------|
A|-22222222-00000000-222222222-0---------------------------------------------|
E|---------------------------------------------------------------------------|

the order goes:

Intro
Verse
Chorus
Bridge
Verse
Chorus
Bridge2 (just do a bit of random strumming / picking on the chorus notes
Chorus x 2
Outro

| /  slide up
| \  slide down
| h  hammer-on
| p  pull-off
| ~  vibrato
| +  harmonic
| x  Mute note
===============================================================================
            
Hard to play? Try these video lessons and learn fast. | Correct




comments powered by Disqus
↑ Back to top | Tablatures and chords are parodies/interpretations of the original songs. You may use it for private study, scholarship, research or language learning purposes only