» » »

Hit The Lights, Drop The Girl Tabs (ver.1)

Artists:  A B C D E F G H I J K L M N O P Q R S T U V W X Y Z # 

Drop The Girl Tabs (ver.1)

Hit The Lights Tabs
 Rating:
3.5/5 (8 votes)
Drop The Girl lessons Tabs too difficult? Try these video lessons and learn fast
1
                This song is off the album 'skip school, start fights'
This song is played in drop d flat.

eb
Bb
Gb
Db
Ab
Db

p     = palm mute
-> <- = continue to next line
b     = bend
~     = let ring
.     = gradual palm mute to open


Unfortunately i ay not have all of the sections 100%, some of the lead sections 
are hard to pick out.
But there is enough for you to play the whole song, and improvise with.
Have fun.


Intro pt 1: Rhythm (faded distort)
|------------------------------------------------------------|
|------------------------------------------------------------|
|------------------------------------------------------------|
|-0-99-55-777-5-0---9-77-55-7777---9-77-55-77-99-77-7-777777-|
|-0-99-55-777-5-0---9-77-55-7777---9-77-55-77-99-77-7-777777-|
|-0-99-55-777-5-0---9-77-55-7777---9-77-55-77-99-77-7-777777-|

Intro pt 2: Rhythm (same as pt 1, just not faded distort)

Intro pt 2: Lead
|----------------------------------------------------->
|-----------------------10---------------------------->
|---9-7---9-7---9-7---9------9-7---9-7---99---9-----9->
|-7-----7-----7-----7------7-----7-----7----7---9-7--->
|----------------------------------------------------->
|----------------------------------------------------->

<-----------------------------------------------------|
<-----------------------10------------10-----------10-|
<---9-7---9-7---9-7---9-----------9------------9------|
<-7-----7-----7-----7-------7-9-7---7----7-9-7---7----|
<-----------------------------------------------------|
<-----------------------------------------------------|

Verse: Rhythm
|------------------------------------------------------------------------>
|------------------------------------------------------------------------>
|------------------------------------------------------------------------>
|-0-99-77-55-7-5-0---0-99-77-55-7-5-0---99999999777777775555555577777777->
|-0-99-77-55-7-5-0---0-99-77-55-7-5-0---99999999777777775555555577777777->
|-0-99-77-55-7-5-0---0-99-77-55-7-5-0---99999999777777775555555577777777->
                                        pppppppppppppppppppppppppppppppp

<--------------------------------------------------------------|
<--------------------------------------------------------------|
<--------------------------------------------------------------|
<-0-99-77-55-7-5-0---0-99-77-55-7-5-0---0-99-77-55-7-5555-7777-|
<-0-99-77-55-7-5-0---0-99-77-55-7-5-0---0-99-77-55-7-5555-7777-|
<-0-99-77-55-7-5-0---0-99-77-55-7-5-0---0-99-77-55-7-5555-7777-|

Verse: Lead
|---------------| (during palm mute bit)
|------------10-|
|--------9------| cant fully make it out,
|--7-9-7---7----| but playing around with
|---------------| this seems to work.
|---------------|

Chorus: Both
|--------------------------------------------------------------|
|--------------------------------------------------------------|
|--------------------------------------------------------------|
|-5555555577779999-5555555599997777-5555555577779999-555555557-|
|-5555555577779999-5555555599997777-5555555577779999-555555557-|
|-5555555577779999-5555555599997777-5555555577779999-555555557-|

Post-Chorus: Lead
|-----------------------------------------------------|
|-----------------------10----------------------------|
|---9-7---9-7---9-7---9------9-7---9-7---99---9-----9-|
|-7-----7-----7-----7------7-----7-----7----7---9-7---|
|-----------------------------------------------------|
|-----------------------------------------------------|

Post-Chorus: Rhythm
|--------------------------------|
|--------------------------------|
|--------------------------------|
|-0-99-55-777-5-0---9-77-55-7777-|
|-0-99-55-777-5-0---9-77-55-7777-|
|-0-99-55-777-5-0---9-77-55-7777-|

Verse 2: Rhythm
|------------------------------------------------------------------------>
|------------------------------------------------------------------------>
|------------------------------------------------------------------------>
|-0-99-77-55-7-5-0---0-99-77-55-7-5-0---99999999777777775555555577777777->
|-0-99-77-55-7-5-0---0-99-77-55-7-5-0---99999999777777775555555577777777->
|-0-99-77-55-7-5-0---0-99-77-55-7-5-0---99999999777777775555555577777777->

<----------------------------------------------------------------|
<----------------------------------------------------------------|
<----------------------------------------------------------------|
<-0-99-77-55-7-5-0---0-99-77-55-7-5-0---0-99-77-55-7-5555555-----|
<-0-99-77-55-7-5-0---0-99-77-55-7-5-0---0-99-77-55-7-5555555-----|
<-0-99-77-55-7-5-0---0-99-77-55-7-5-0---0-99-77-55-7-5555555-----|

Verse 2: Lead (cant make this out fully, but these are the three bits
|-----------|--------------|---------| to work with during it, the 9b
|-----------|-----------10-|---------| could also be a slight harmonic
|-12--------|-------9------|------9b-| if you want.
|--x--------|-7-9-7---7----|-7-99----|
|-10(xlots)-|--------------|---------|
|-----------|--------------|---------|

Chorus:
|---------------------------------------------------------------------|
|---------------------------------------------------------------------|
|---------------------------------------------------------------------|
|-5555555577779999-5555555599997777-5555555577779999-5555555577777777-|
|-5555555577779999-5555555599997777-5555555577779999-5555555577777777-|
|-5555555577779999-5555555599997777-5555555577779999-5555555577777777-|x2

Break pt1: Lead
|--------------------------------------------|
|--------------------------------------------|
|--------------------------------------------|
|-00-0-7-9-00-0-7-9-00-0-7-9-00-0-7-9-00-7-9-|
|--------------------------------------------|
|--------------------------------------------|

Break pt2: Rhythm
|--------------------------------------------|
|--------------------------------------------|
|--------------------------------------------|
|--------55-----5577------55-----55---7-77-7-|
|--------55-----5577------55-----55---7-77-7-|
|--------55-----5577------55-----55---7-77-7-|

Break pt2: Lead (play same as pt1)

Break pt2: Rhythm
|------------------------------------------------------->
|------------------------------------------------------->
|------------------------------------------------------->
|-555-55-55-5x-55-55-7597-555-55-55-5x-5555555577777777->
|-555-55-55-5x-55-55-7597-555-55-55-5x-5555555577777777->
|-555-55-55-5x-55-55-7597-555-55-55-5x-5555555577777777->
  ppp pp pp p  pp pp pppp ppp pp pp p  pppppppppppppppp

<----------------------------------------------------------|
<----------------------------------------------------------|
<----------------------------------------------------------|
<-555-55-55-55-55-55-7597-555-55-55-55-5555555577777777-5~-|
<-555-55-55-55-55-55-7597-555-55-55-55-5555555577777777-5~-|
<-555-55-55-55-55-55-7597-555-55-55-55-5555555577777777-5~-|

Bridge:
|-----|-----------------------|
|-----|-----------------------|
|-----|-----------------------|
|-577-|-0-99-55-777-555555555-|
|-577-|-0-99-55-777-555555555-|
|-577-|-0-99-55-777-555555555-|
                    .........

Chorus:
|---------------------------------------------------------------------|
|---------------------------------------------------------------------|
|---------------------------------------------------------------------|
|-5555555577779999-5555555599997777-5555555577779999-5555555577777777-|
|-5555555577779999-5555555599997777-5555555577779999-5555555577777777-|
|-5555555577779999-5555555599997777-5555555577779999-5555555577777777-|x2

Outro: Lead
|--------------------------------------------|
|--------------------------------------------|
|--------------------------------------------|
|-00-0-7-9-00-0-7-9-00-0-7-9-00-0-7-9-00-7-9-|
|--------------------------------------------|
|--------------------------------------------|

Outro: Rhythm
|--------------------|
|--------------------|
|--------------------|
|--------55-----5577-|
|--------55-----5577-|
|--------55-----5577-|
            
Submit corrections

comments powered by Disqus
↑ Back to top | Hit The Lights Tabs for Drop The Girl. Lyrics for acoustic guitar and electric guitar. 1 Tablatures and chords are parodies/interpretations of the original songs. You may use it for private study, scholarship, research or language learning purposes only