>
 >
Don't Wait

Don't Wait Guitar Tabs

Hit The Lights - Don't Wait chords, tabs, tablatures, lyrics

Guitar lessons | Add/correct | Request | Top 50 tabs Artists:  A B C D E F G H I J K L M N O P Q R S T U V W X Y Z 0-9

Don't Wait Guitar Tabs – Hit The Lights

CD, Sheet music, Poster

Do you like Don't Wait? Share with your friends now
Tabs
HIT THE LIGHTS.

Don't Wait.

Skip School Start Fights.




.  = Palm Mute
h/p= Hammer on/pull off
__ = Ring note


The strumming is easy enough to figure out by yourself.
I've put the piano part in some places,
The rest is just a repetition or variation of the previous.


Enjoi (Y)



     C5                D5

x-3-5-5-x-x       x-5-7-7-x-x

     E5               G5
 0-2-2-x-x-x
(x-7-9-9-x-x)     3-5-5-x-x-x




Guitar (0:00)
E|-----------------------------------|-----------------------||
B|-----------------------------------|-----------------------||
G|--4-4-4-4-7-7-7-7---------4-4-4-4--|-----------------------||
D|------------------7-7-7-7----------|--5-5-5-5-5-5-5-5-5----||
A|-----------------------------------|-----------------------||
E|-----------------------------------|-----------------------||
   . . . . . . . . . . . . . . . .      . . . . . . . . ____



Guitar (0:06)            (0:20)
E|--------------||       |-----||
B|--------------||       |-----||
G|--5-----------||       |-----||
D|--5--5--2--2--|| X2    |--5--||
A|--3--5--2--2--||       |--5--||
E|-----3--0--0--||       |--3--||



Piano (Tab) (0:06):
E|-----7----------7---------7-------12--10--7-----||
B|-------8----------8---------8----------------8--||         
G|--5-------7--5------7--5------7-----------------||        
D|------------------------------------------------|| X2   
A|------------------------------------------------||        
E|------------------------------------------------||
   .  .  .  .

Piano (Tab) (0:20):
E|-----7----7----7---7---||
B|-----8----8----8---8---||         
G|-----------------------||        
D|--5--------------------||   
A|-----------------------||       
E|--3----3-----3---3-----||




Guitar (0:23):
E|--------------||
B|--------------||         
G|--9--7-----5--||        
D|--9--7--5--5--|| X2   
A|--7--5--5--3--||        
E|--------3-----||


Piano (0:23):
E|-------7---||
B|----8------||         
G|-----------||       
D|-----------||  X32 The Note played as the E here, 
A|--7--------||  Should change according to the note played by the guitar. 
E|-----------||


Guitar (0:50):          (1:04)
E|--------------||      |---||
B|--------------||      |---||   
G|--5-----------||      |-5-||  
D|--5--5--2--5--|| X2   |-5-||
A|--3--5--2--5--||      |-3-||
E|-----3--0--3--||      |---||
                          __


Guitar (1:07):
E|--------------||
B|--------------||         
G|--9--7-----5--||        
D|--9--7--5--5--|| X2   
A|--7--5--5--3--||        
E|--------3-----||



Guitar (1:34):          
E|--------------||
B|--------------||        
G|--5-----------||     
D|--5--5--2--5--|| X2 
A|--3--5--2--5--||      
E|-----3--0--3--||      



Guitar (1:48):            (2:08)
E|--------------||       |-----||
B|--------------||       |-----||
G|--5-----------||       |--5--||
D|--5--5--2--2--|| X3    |--5--||
A|--3--5--2--2--||       |--3--||
E|-----3--0--0--||       |-----||


Guitar (2:15):                   (2:15)
E|------------------------||    |-----------||
B|---20---------20--------||    |-----------||
G|---------19-------------||    |-----------|| 
D|------------------19----||    |--------5--||  X4
A|------------------------||    |----5------||
E|------------------------||    |--3---3----||
                                         ____
                          


Piano (2:23):
E|-----|-----|-----|------12-10-8-||
B|-----|--8--|-----|---8----------||        
G|-----|-----|--7--|--------------||      
D|-----|-----|-----|--------------||
A|--3--|-----|-----|--------------||
E|-----|-----|-----|--------------||

Piano (2:30):
E|-----|-----|-----|-------||
B|-----|--8--|-----|---8---||        
G|-----|-----|--7--|-------||      
D|-----|-----|-----|-------||
A|--3--|-----|-----|-------||
E|-----|-----|-----|-------||




Guitar (2:37):           
E|---------------------------||  
B|---------------------------||       
G|--5-----7-----5------------||       
D|--5--5--7--2--5--5--2--2---||     
A|--3--5--5--2--3--5--2--2---||       
E|-----3-----0-----3--0--0---||       
    .  .  .  .  .  .  .  ____


Guitar (2:54):          (3:21)          (3:24)
E|--------------||      |--------||     |---||
B|--------------||      |--------||     |---||
G|--5-----------||      |--------||     |-5-||
D|--5--5--2--5--|| X4   |--2--5--||     |-5-||
A|--3--5--2--5--||      |--2--5--||     |-3-||
E|-----3--0--3--||      |--0--3--||     |---||
                                         ______________.




there were ocean waves
big city lights
lazy summer days
and crazy sleepless nights

somewhere along an open road
we drove ourselves out of our minds
sometimes to do the things you love
you leave the ones you love behind

you danced
you drank
you laughed
you cried
you went to work
and said goodbye
i've lived
i learnt
stayed up all night
i'll see you when the time is right again

i got old shoes in a brand new town
i wear 'em like they're staring, let the tongues hang out
i'm just too loose for the same old crowd
if i could only see your face before my souls wear out

somewhere out on an open road
you searched until you looked inside
sometimes you've gotta see the world
to find out what you left behind

you danced
you drank
you laughed
you cried
you went to work
and said goodbye
i've lived
i learnt
stayed up all night
i'll see you when the time is right again

wait for me
(don't wait, don't wait)
wait for me
(don't wait, don't wait)

we walked the floor, the sun, the rise
we packed our bags and waved goodbye
we drove into a great sunset
and lived a life with no regret
we lived a life with no regret

(don't wait, don't wait, don't wait, don't wait)

i can't recall the sun to rise
i'll never know until i try
we made mistakes and learned in time
but on the road we live and die

i can't recall the sun to rise
i'll never know until i try
we made mistakes and learned in time
but on the road we live and die
but on the road we live and die
we live...

(we'll never know...)







   .  .  .  .





Comments


Popular Hit The Lights tabs & chords
100 Times (Acoustic) Chords
Hidden Track 1 Chords
Make A Run For It 1 Chords
Save Your Breath Chords
Bodybag 1 Tabs
Cry Your Eyes Out Tabs
Her Eyes Say Yes Tabs
Make A Run For It Tabs
Save Your Breath Tabs
Until We Get Caught Tabs


Song lyrics



↑ Back to top | Tablatures and chords are parodies/interpretations of the original songs. You may use it for private study, scholarship, research or language learning purposes only
© 2014 AZChords.com Contact us | Privacy policy | DMCA | Add/correct tabs | Request tabs | Top 50 tabs