» » »

Hit The Lights, Bodybag Tabs (ver.2)

Artists:  A B C D E F G H I J K L M N O P Q R S T U V W X Y Z # 

Bodybag Tabs (ver.2)

Hit The Lights Tabs
Rating:
0/5 (0 votes)
Hard to play? Try these video lessons and learn fast.
                -------------------------------------------------------------------------------------------------
                             BODYBAG - Hit The Lights
-------------------------------------------------------------------------------------------------

Tuning: Drop D (DADGBE)

Pretty sure this is 99% accurate, the rhythms might be a tad off on this and the amount 
of times play but if you are good at guitar you can figure it all out but if you do have 
anything to add then let me know.
Don't forget to tell me what you think of it.



Intro: (Guitar one)
e|------|--------------------------------------------------------------------------------------|
B|------|--------------------------------------------------------------------------------------|
G|------|--------------------------------------------------------------------------------------|
D|--XXX-|-7-0-77-0-7-77--2-2-22--4-4-44--------0-0-00--4-4-44--2-2-22--7-7-77-0-000-00-7-2-----|
A|--XXX-|-7-0-77-0-7-77--2-2-22--4-4-44-- x2 --0-0-00--4-4-44--2-2-22--7-7-77-0-000-00-7-2-----|
D|--XXX-|-7-0-77-0-7-77--2-2-22--4-4-44--------0-0-00--4-4-44--2-2-22--7-7-77-0-000-00-7-2-----|

Intro Part Two:    (Guitar one)
e|---------------------------------------------------------------------------|
B|---------------------------------------------------------------------------|
G|---------------------------------------------------------------------------|
D|---7-------2222-4444----7-------2222-4444----------------------------------|
A|---7- x8 --2222-4444----7- x8 --2222-4444----------------------------------|
D|---7-------2222-4444----7-------2222-4444----------------------------------|

    (Guitar two)
e|---------------------------------------------------------------------------|
B|---------------------------------------------------------------------------|
G|------9--------------9-----------------------------------------------------|
D|--7-6---9h11p9-7-7-6---9h11p9-7--------------------------------------------|
A|--------------------------------7------------------------------------------|
D|---------------------------------------------------------------------------|







Verse: (Guitar one)
e|-------------------------------------------------------------------------------|
B|-------------------------------------------------------------------------------|
G|-------------------------------------------------------------------------------|
D|--0-00s--2--0-00s--4-2--0-00s--2--0-00s--7-2-----------------------------------|
A|--0-00s--2--0-00s--4-2--0-00s--2--0-00s--7-2-- x2 -----------------------------|
D|--0-00s--2--0-00s--4-2--0-00s--2--0-00s--7-2-----------------------------------|
    x xx      x xx        x xx      x xx

       (Guitar two) Second time round.
       e|--------|
       B|--------|
       G|----14--|
       D|----x---| Repeat till end of Verse
       A|----12--|
       D|--------|




Pre Chorus: (Guitar one)
e|----------------------------------------------------------------------------|
B|----------------------------------------------------------------------------|
G|----------------------------------------------------------------------------|
D|---2-2-4-4-2h4-0-0-0000000000000000--2-2-4-4-2h4-0--0-0-0s------------------|
A|---2-2-4-4-2h4-0-0-0000000000000000--2-2-4-4-2h4-0--0-0-0s------------------|
D|---2-2-4-4-2h4-0-0-0000000000000000--2-2-4-4-2h4-0--0-0-0s------------------|
                     xxxxxxxxxxxxxxxx                 x x x

            (Guitar two)
            e|--------|
            B|--------|
            G|----9---|
            D|----x---| Repeat till end of Pre Chorus
            A|----7---|
            D|--------|




Chorus: (Both Guitars)
e|----------------------------------------------------------------------------------------|
B|----------------------------------------------------------------------------------------|
G|----------------------------------------------------------------------------------------|
D|---7-0-77-0-7-77--2-2-22--4-4-44--------0-0-00--4-4-44--2-2-22--7-7-77-0-000-00-7-2-----|
A|---7-0-77-0-7-77--2-2-22--4-4-44-- x2 --0-0-00--4-4-44--2-2-22--7-7-77-0-000-00-7-2-----|
D|---7-0-77-0-7-77--2-2-22--4-4-44--------0-0-00--4-4-44--2-2-22--7-7-77-0-000-00-7-2-----|






Intro Part Two:    (Guitar one)
e|---------------------------------------------------------------------------|
B|---------------------------------------------------------------------------|
G|---------------------------------------------------------------------------|
D|---7-------2222-4444----7-------2222-4444----------------------------------|
A|---7- x8 --2222-4444----7- x8 --2222-4444----------------------------------|
D|---7-------2222-4444----7-------2222-4444----------------------------------|

    (Guitar two)
e|---------------------------------------------------------------------------|
B|---------------------------------------------------------------------------|
G|------9--------------9-----------------------------------------------------|
D|--7-6---9h11p9-7-7-6---9h11p9-7--------------------------------------------|
A|--------------------------------7------------------------------------------|
D|---------------------------------------------------------------------------|







Verse 2: (Both Guitars)
e|---------------------------------------------------------------------------------------|
B|---------------------------------------------------------------------------------------|
G|---------------------------------------------------------------------------------------|
D|---0-00-HOLD---4-2-0-00----000--7-2---0--------2-------4-------0--------2--2--0000-0---|
A|---0-00-HOLD---4-2-0-00----000--7-2---0- x16 --2- x8 --4- x8 --0- x16 --2--2--0000-0---|
D|---0-00-HOLD---4-2-0-00----000--7-2---0--------2-------4-------0--------2--2--0000-0---|
     x x             x xx    xxx        x        x       x       x              xxxx x




Pre Chorus: (Guitar one)
e|---------------------------------------------------------------------------|
B|---------------------------------------------------------------------------|
G|---------------------------------------------------------------------------|
D|---2-2-4-4-2h4-0-0-0000000000000000--2-2-4-4-2h4-0--0-0-0------------------|
A|---2-2-4-4-2h4-0-0-0000000000000000--2-2-4-4-2h4-0--0-0-0------------------|
D|---2-2-4-4-2h4-0-0-0000000000000000--2-2-4-4-2h4-0--0-0-0------------------|
                     xxxxxxxxxxxxxxxx                 x x x

            (Guitar two)
            e|--------|
            B|--------|
            G|----9---|
            D|----x---| Repeat till end of Pre Chorus
            A|----7---|
            D|--------|





Chorus: (Both Guitars)
e|---------------------------------------------------------------------------------------|
B|---------------------------------------------------------------------------------------|
G|---------------------------------------------------------------------------------------|
D|---7-0-77-0-7-77--2-2-22--4-4-44--------0-0-00--4-4-44--2-2-22--7-7-77-0-000-00-7-2----|
A|---7-0-77-0-7-77--2-2-22--4-4-44-- x2 --0-0-00--4-4-44--2-2-22--7-7-77-0-000-00-7-2----|
D|---7-0-77-0-7-77--2-2-22--4-4-44--------0-0-00--4-4-44--2-2-22--7-7-77-0-000-00-7-2----|





Bridge (Both Guitars)
e|----------------------------------------------------------------------------------|
B|----------------------------------------------------------------------------------|
G|--------6------------6------------4------------4----------------------------------|
D|---4-4--x- x12 -0-0--x- x12 -2-2--x- x12 -2-2--x- x12 --4-------5-------2---------|
A|---4-4--4-------0-0--4-------2-2--2-------2-2--2--------4- x8 --5- x8 --2- x16 ---|
D|---4-4----------0-0----------2-2----------2-2-----------4-------5-------2---------|

e|-----------------------------------|
B|-----------------------------------|
G|-----------------------------------|
D|----GANG CHANT!--00000000-0s-------|
A|-----------------00000000-0s-------|
D|-----------------00000000-0s-------|




Chorus: (Both Guitars)
e|-----------------------------------------------------------------------------------------------|
B|-----------------------------------------------------------------------------------------------|
G|-----------------------------------------------------------------------------------------------|
D|---7-0-77-0-7-77--2-2-22--4-4-44--------0-0-00--4-4-44--2-2-22--7-7-77-0-000-00-7-2------------|
A|---7-0-77-0-7-77--2-2-22--4-4-44-- x2 --0-0-00--4-4-44--2-2-22--7-7-77-0-000-00-7-2------------|
D|---7-0-77-0-7-77--2-2-22--4-4-44--------0-0-00--4-4-44--2-2-22--7-7-77-0-000-00-7-2------------|






Outro: (Guitar one)
e|-----------------------------------------------------------------------------------------|
B|-----------------------------------------------------------------------------------------|
G|-----------------------------------------------------------------------------------------|
D|---7-0-77-0-7-77--2-2-22--4-4-44--------0-0-0000--4444--2222--7777--0--------2-------2s--|
A|---7-0-77-0-7-77--2-2-22--4-4-44-- x2 --0-0-0000--4444--2222--7777--0- x12 --2- x8 --2s--|
D|---7-0-77-0-7-77--2-2-22--4-4-44--------0-0-0000--4444--2222--7777--0--------2-------2s--|
                                                                      x        x
e|-------------------------|
B|-------------------------|
G|-------------------------|
D|--2HOLD------------------|
A|--2HOLD------------------|
D|--2HOLD------------------|

       (Guitar two)
e|-----------------------------------------------------------------------------------------|
B|-----------------------------------------------------------------------------------------|
G|------9--------------9-------------------------------------------------------------------|
D|--7-6---9h11p9-7-7-6---9h11p9-7--- x2 --0-0-0000--4444--2222--7777--0--------2-------2s--|
A|--------------------------------7-------0-0-0000--4444--2222--7777--0- x12 --2- x8 --2s--|
D|----------------------------------------0-0-0000--4444--2222--7777--0--------2-------2s--|
                                                                      x        x
e|-------------------------|
B|-------------------------|
G|------9------------------|
D|--7-6---9h11p9- x8 ------|
A|-------------------------|
D|-------------------------|



************************************

| /   slide up
| \   slide down
| h   hammer-on
| p   pull-off
| ~   vibrato
| s   stop ringing
| x   Mute note
| b   Bend
| pb  Pre-bend
| br  Bend release
| pbr Pre-bend release
| brb Bend release bend

************************************
            

comments powered by Disqus
↑ Back to top | Hit The Lights Tabs for Bodybag. Lyrics for acoustic guitar and electric guitar. Tablatures and chords are parodies/interpretations of the original songs. You may use it for private study, scholarship, research or language learning purposes only