» » »

309 Bass tabs (ver.1)

Artists:  A B C D E F G H I J K L M N O P Q R S T U V W X Y Z # 

309 Bass tabs (ver.1)

Hit The Lights
Rating:
0/5 (0 votes)

Hard to play? Try these video lessons and learn fast.
                TUNING:         DROP D

This song has a very background bass which makes many of 
the parts hard to hear.  This is the basics of the song, 
some bridges between these parts are up for interpretation, 
you’ll just have to wing it.

INTRO PT 1
G|---------------------------------------------------|
D|---------------------------------------------------|
A|---------------------------------------------------|
D|44-77-22-44-2444-----------------------------------|

INTRO PT 2
G|---------------------------------------------------|
D|---------------------------------------------------|
A|---------------------------------------------------|
D|44444444-7777-4740---------------------------------|

CHORUS
G|---------------------------------------------------|
D|---------------------------------------------------|
A|---------------------------------------------------|
D|44-77-22-44-2444-----------------------------------|

V1 PT 1
G|---------------------------------------------------|
D|---------------------------------------------------|
A|---------------------------------------------------|
D|0~4~2~-00-02024-020242-----------------------------|

V1 PT 2
G|---------------------------------------------------|
D|---------------------------------------------------|
A|---------------------------------------------------|
D|02024-020242-0000-22-4-22-0000~--------------------|

V2 PT 1
G|---------------------------------------------------|
D|---------------------------------------------------|
A|---------------------------------------------------|
D|00--242-0-00-0222----------------------------------|

V2 PT 2
G|---------------------------------------------------|
D|---------------------------------------------------|
A|---------------------------------------------------|
D|0000-4444-2222-4444--------------------------------|

V2 PT 3
G|---------------------------------------------------|
D|---------------------------------------------------|
A|---------------------------------------------------|
D|02024-02024----------------------------------------|

V2 PT 4
G|---------------------------------------------------|
D|---------------------------------------------------|
A|---------------------------------------------------|
D|0000-22-4-22-0000----------------------------------|

BRIDGE PT 1
G|---------------------------------------------------|
D|---------------------------------------------------|
A|---------------------------------------------------|
D|000000-222222-444444-4-420-------------------------|

BRIDGE PT 2
G|---------------------------------------------------|
D|---------------------------------------------------|
A|---------------------------------------------------|
D|00-0-00-0-77-22-00-0-00-0-44-22--------------------|


INTRO  PT 1		X3
INTRO  PT 2		X1
V1     PT 1		X1
V1     PT 2		X1
CHORUS		        X4
V2     PT 1		X1
V2     PT 2		X2
V2     PT 3		X2
V2     PT 4		X1
CHORUS		        X7
BRIDGE PT 1		X4
BRIDGE PT 2		X1
CHORUS: Starts midway then repeats until fade away at end
            
Hard to play? Try these video lessons and learn fast. | Correct




comments powered by Disqus
↑ Back to top | Tablatures and chords are parodies/interpretations of the original songs. You may use it for private study, scholarship, research or language learning purposes only