» » »

Lips Of An Angel Tabs (ver.7)

Artists:  A B C D E F G H I J K L M N O P Q R S T U V W X Y Z # 

Lips Of An Angel Tabs (ver.7)

Hinder
Rating:
0/5 (0 votes)

Hard to play? Try these video lessons and learn fast.
                Lips of an angel
This tab is perfect. All you have to do is print it out. This song is awsome! solo will 
awhile to learn but it should play able for a novice player.
xb-rad'sguitarx

Intro/verse Guitar 1                                        x5
E|----0------------------------------------------------------|
B|----0----3--------------------------------------------3----|
A|----2---2-2-2---4---3---------------7------------------2-2-|
D|----2------2----4--4-4-4------7------7--7-------0-------0--|
A|----0-----------2-----4-------5-------5---------0----------|
D|------------------------------5---5-------------0---0------|
Guitar 2 (plays after guitar 1 plays verse 3 times)
E|--------------------------------------------------------------------------------------------|
B|--------------------------------------------------------------------------------------------|
G|---------------9b11~~~~~~~~~~~~-~~9~~~~~~~-7~~~~~~~~~~--9~~~~~~~~~~-------9b11~~~~~~~~~~~~--|
D|--------------------------------------------------------------------------------------------|
A|--------------------------------------------------------------------------------------------|
D|--------------------------------------------------------------------------------------------|
Pre-chorus Guitar 1 and 2                          x2
E|--------------------------------------------------|
B|----3----3------0----0------3----3------3----3----|
A|----2----2------2----2------4----4------0----0----|
D|----0----0------2----2------4----4------0----0----|
A|----0----0------0----0------2----2------0----0----|
D|----0----0------------------------------5----5----|
Chorus Guitar 1 and 2                          x2
E|---------------------------3----3-----------------|
B|----3----3------0----0-----3----3-------3----3----|
A|----2----2------2----2-----5----5-------0----0----|
D|----0----0------2----2-----5----5-------0----0----|
A|----0----0------0----0-----3----3-------0----0----|
D|----0----0------------------------------5----5----|
 (strums down)                    x1
E|---------------------------------|
b|----3-x8----0-x8----3-x8------3--|
A|----2-------2-------4---------0--|
D|----0-------2-------4---------0--|
A|----0-------0-------2---------0--|
D|----0-------------------------5--|
After chorus Guitar 1                         x1
E|----------------------------------------------|
B|-----------------------------3--3-3-3--3-3-3--|
G|---4---4-4-4-----2---2-2-2---0--0-0-0--0-0-0--|
D|---4---4-4-4-----2---2-2-2---0--0-0-0--0-0-0--|
A|---2---2-2-2-----0---0-0-0---0--0-0-0--0-0-0--|
D|-----------------------------5--5-5-5--5-5-5--|
Guitar 2                                               x1
E|-------------------------------------------------------|
B|-------------------------------------------10----------|
G|---11--9--11~~---11-12-11----11-9-11-12-11----11-9~~~--|
D|-------------------------------------------------------|
A|-------------------------------------------------------|
D|-------------------------------------------------------|
Intro/verse Guitar 1                                        x4
E|----0------------------------------------------------------|
B|----0----3--------------------------------------------3----|
A|----2---2-2-2---4---3---------------7------------------2-2-|
D|----2------2----4--4-4-4------7------7--7-------0-------0--|
A|----0-----------2-----4-------5-------5---------0----------|
D|------------------------------5---5-------------0---0------|
Guitar 2
E|------------------------------------------------------------------10--------------------|
B|----------------------------------------------------------------------------------------|
G|9~~~~~~~~~~7~~~~~~~~~~9b11-9p7h9~~~9~~~~~~~~/12-12-12-12-12-12-12---12-11h12p11-9/7-7/9~|
D|----------------------------------------------------------------------------------------|
A|----------------------------------------------------------------------------------------|
D|----------------------------------------------------------------------------------------|

E|-----------------------------------------------------------------10---10---10---|
B|--------------------------------------------------------------------------------|
G|9~~~~~~~~~~7~~~~~~~~~~9b11-9p7h9~~9~~~~~~~~/12-12-12-12-12-12-12---12---12---12-|
D|--------------------------------------------------------------------------------|
A|--------------------------------------------------------------------------------|
D|--------------------------------------------------------------------------------|
Pre-chorus Guitar 1                                x2
E|--------------------------------------------------|
B|----3----3------0----0------3----3------3----3----|
A|----2----2------2----2------4----4------0----0----|
D|----0----0------2----2------4----4------0----0----|
A|----0----0------0----0------2----2------0----0----|
D|----0----0------------------------------5----5----|
Guitar 2                                                  x2
E| /14-14-10-14-10-12-10-12-10--14-10-14-10---15-10-15-10--|
B|---------------------------------------------------------|
G|---------------------------------------------------------|
D|---------------------------------------------------------|
A|---------------------------------------------------------|
D|---------------------------------------------------------|
Chorus Guitar 1 and 2                         x2
E|---------------------------3----3-----------------|
B|----3----3------0----0-----3----3-------3----3----|
A|----2----2------2----2-----5----5-------0----0----|
D|----0----0------2----2-----5----5-------0----0----|
A|----0----0------0----0-----3----3-------0----0----|
D|----0----0------------------------------5----5----|
(strums down)                    x1
E|---------------------------------|
b|----3-x8----0-x8----3-x8------3--|
A|----2-------2-------4---------0--|
D|----0-------2-------4---------0--|
A|----0-------0-------2---------0--|
D|----0-------------------------5--|
Solo Guitar 1                                              x4
E|----------------------------------------------------------|
B|----------------------------------------------------------|
G|---3-3-3-3-3-3-3--5-5-5-5-5-5-5--7-7-7-7-7-7-7-7-7-7-7-7--|
D|---3-3-3-3-3-3-3--5-5-5-5-5-5-5--7-7-7-7-7-7-7-7-7-7-7-7--|
A|---1-1-1-1-1-1-1--3-3-3-3-3-3-3--5-5-5-5-5-5-5-5-5-5-5-5--|
D|----------------------------------------------------------|
Guitar 2
E|-------------------------------------------------------------------------|
B|-------------------------------------------------------------------------|
G|17b19-17p15h17-17b19-17p15h17-17--17-17-17/19-19-19-19-11-11-11-11-7-7-7-|
D|--------------------------------------------------------x--x--x--x-x-x-x-|
A|--------------------------------------------------------9--9--9--9-5-5-5-|
D|-------------------------------------------------------------------------|

E|----------------------------------------------------------------------------|
B|----------------------------------------------------------------------------|
G|--10-10-10-10--9-9-9-9-9-9-9--5-5-5-5--7-7-7--11-11-11-11-11-11-11-11-12-14-|
D|---x--x--x--x--x-x-x-x-x-x-x--x-x-x-x--x-x-x---x--x--x--x--x--x--x--x--x--x-|
A|---8--8--8--8--7-7-7-7-7-7-7--3-3-3-3--5-5-5---9--9--9--9--9--9--9--9-10-12-|
D|----------------------------------------------------------------------------|

E|---------------------------------------------------------------|
B|-----------------------------------------5/7-------5/7-----5/7-|
G|5~~~~~~~~~-----------------------------------------------------|
D|-----------------7h8-7--5-4-------4-5-7------4-5-7-----4-5-----|
A|---------------------------------------------------------------|
D|---------------------------------------------------------------|

E|-----------------------------------------21b22-20----20--------------------|
B|--------------------15h17-17b18-17-15-17----------17----17-15b17-15~~~~~~--|
G|---17b19-17p15h17----------------------------------------------------------|
D|---------------------------------------------------------------------------|
A|---------------------------------------------------------------------------|
D|---------------------------------------------------------------------------|
After solo Guitar 1
E----------------------------------------------|
B-------3---------------------------3----------|
G-----2---2---2-----2--------5-5-5--0----------|
D---0-------0-----2---2---2--5-5-5--0~~~~~~~~--|
A---------------0-------0----3-3-3--0~~~~~~~~--|
D-----------------------------------5~~~~~~~~--|

Guitar 2
E-------------------------------------------------|
B---------------------Volume Swell---13(N.H.)-----|
G-------------------------------------------------|
D-------------------------------------------------|
A-------------------------------------------------|
D-------------------------------------------------|
Chorus Guitar 1 and 2                         x2
E|---------------------------3----3-----------------|
B|----3----3------0----0-----3----3-------3----3----|
A|----2----2------2----2-----5----5-------0----0----|
D|----0----0------2----2-----5----5-------0----0----|
A|----0----0------0----0-----3----3-------0----0----|
D|----0----0------------------------------5----5----|
(strums down)                    x2
E|---------------------------------|
b|----3-x8----0-x8----3-x8------3--|
A|----2-------2-------4---------0--|
D|----0-------2-------4---------0--|
A|----0-------0-------2---------0--|
D|----0-------------------------5--|
Guitar 1
E-----------------------------------------------|
B-----------------------------------------------|
G-------2---------------2-------2--4------------|
D-----0---0----0---0-----0---0----------7(N.H.)-|
A---2-------2----0---------0--------------------|
D-----------------------------------------------|
Guitar 1
E-----------------------------------------------------|
B-----------------------------------------------------|
G-------2---------------2-------2--4---------------7--|
D-----0---0----0---0-----0---0----------7(N.H.)---7---|
A---2-------2----0---------0---------------------5----|
D-----------------------------------------------5-----|
            
Hard to play? Try these video lessons and learn fast. | Correct




comments powered by Disqus
↑ Back to top | Tablatures and chords are parodies/interpretations of the original songs. You may use it for private study, scholarship, research or language learning purposes only