» » »

Lips Of An Angel Tabs (ver.1)

Artists:  A B C D E F G H I J K L M N O P Q R S T U V W X Y Z # 

Lips Of An Angel Tabs (ver.1)

Hinder
Rating:
1.5/5 (83 votes)

Hard to play? Try these video lessons and learn fast.
                Hinder - Lips of an Angel
Special Thanks to Trent Adams
Dropped D
Solo is worked out best as possible...Sorry not 100% correct

Guitar 1
E----------------------------------------------------------------------------|
B-------------3------------------3-----------------------------------3-------|
G---2----2------2---2--4----4------4---4-----------7-------------2-----2---2-|
D---2--2---2------2----4--4---4------4----7----7-----7---7--0--0---0-----0---|
A---0------------------2------------------5--5---5-----5----0----------------|
D-----------------------------------------5-----------------0----------------|

Verse 1: "Honey why are you calling me so late"
Guitar 1
E----------------------------------------------------------------------------|
B-------------3------------------3-----------------------------------3-------|
G---2----2------2---2--4----4------4---4-----------7-------------2-----2---2-|
D---2--2---2------2----4--4---4------4----7----7-----7---7--0--0---0-----0---|
A---0------------------2------------------5--5---5-----5----0----------------|
D-----------------------------------------5-----------------0----------------|

"It's kinda hard to talk right now"
Guitar 1
E----------------------------------------------------------------------------|
B-------------3------------------3-----------------------------------3-------|
G---2----2------2---2--4----4------4---4-----------7-------------2-----2---2-|
D---2--2---2------2----4--4---4------4----7----7-----7---7--0--0---0-----0---|
A---0------------------2------------------5--5---5-----5----0----------------|
D-----------------------------------------5-----------------0----------------|
Guitar 2
E----------------------------------------------------------------------------|
B----------------------------------------------------------------------------|
G---------------------------------------------9b11~~~~~~~~~~~~~~~~~~~~~~~~~~-|
D--------------------------------Volume Swell--------------------------------|
A----------------------------------------------------------------------------|
D----------------------------------------------------------------------------|

"Honey why are you crying, is everything ok"
Guitar 1
E----------------------------------------------------------------------------|
B-------------3------------------3-----------------------------------3-------|
G---2----2------2---2--4----4------4---4-----------7-------------2-----2---2-|
D---2--2---2------2----4--4---4------4----7----7-----7---7--0--0---0-----0---|
A---0------------------2------------------5--5---5-----5----0----------------|
D-----------------------------------------5-----------------0----------------|
Guitar 2
E---------------------------------------------------------------------------|
B---------------------------------------------------------------------------|
G-~~9~~~~~~~~~~~~~--------------------------7~~~~~~~~~~~~~~~~~~~~~~~~~~~~~--|
D---------------------------------------------------------------------------|
A---------------------------------------------------------------------------|
D---------------------------------------------------------------------------|

"I gotta whisper cause I can't be to loud"
Guitar 1
E----------------------------------------------------------------------------|
B-------------3------------------3-----------------------------------3-------|
G---2----2------2---2--4----4------4---4-----------7-------------2-----2---2-|
D---2--2---2------2----4--4---4------4----7----7-----7---7--0--0---0-----0---|
A---0------------------2------------------5--5---5-----5----0----------------|
D-----------------------------------------5-----------------0----------------|
Guitar 2
E----------------------------------------------------------------------------|
B----------------------------------------------------------------------------|
G---9~~~~~~~~~~~~~~~~~~~~-------------------9b11~~~~~~~~~~~~~~~~~~~~~~~~~~~~-|
D----------------------------------------------------------------------------|
A----------------------------------------------------------------------------|
D----------------------------------------------------------------------------|

"Well, My girl's in the next room. Sometime's I wish she was you"
Guitar 1 & 2
E-------------------------------------------------------|
B---3----3----------------------3----3------------------|
G---2----2--------2----2--------4----4--------7----7----|
D---0----0--------2----2--------4----4--------7----7----|
A---0----0--------0----0--------2----2--------5----5----|
D---0----0------------------------------------5----5----|

"I guess we never really moved on"
Guitar 1 & 2
E-------------------------------------------------------|
B---3----3----------------------3----3------------------|
G---2----2--------2----2--------4----4--------7----7----|
D---0----0--------2----2--------4----4--------7----7----|
A---0----0--------0----0--------2----2--------5----5----|
D---0----0------------------------------------5----5----|

Chorus:"It's really good to hear your voice sayin my name
         and it sounds so sweet"
Guitar 1 & 2
E---------------------------------------------------------|
B---3----3------------------------------------------------|
G---2----2--------2----2--------12----12--------7----7----|
D---0----0--------2----2--------12----12--------7----7----|
A---0----0--------0----0--------10----10--------5----5----|
D---0----0----------------------10----10--------5----5----|

"Comin from the Lips of an Angel, Hearing those words
         it makes me weak"
Guitar 1 & 2
E--------------------------------------------------------------------|
B---3----3-----------------------------------------------------------|
G---2----2--------2----2--------12----12--------7----7-7-7-7-7-7-7---|
D---0----0--------2----2--------12----12--------7----7-7-7-7-7-7-7---|
A---0----0--------0----0--------10----10--------5----5-5-5-5-5-5-5---|
D---0----0----------------------10----10--------5----5-5-5-5-5-5-5---|

"And I never want to say goodbye, But girl you make it
         so hard to be faithful"
Guitar 1 & 2
E----------------------------------------------------------------|
B----------------------------------------------------------------|
G---4-4-4-4-4-4-4-4---2-2-2-2-2-2-2-2----------------------------|
D---4-4-4-4-4-4-4-4---2-2-2-2-2-2-2-2---2~~~~~~~--2-4-5~~~~~~----|
A---2-2-2-2-2-2-2-2---0-0-0-0-0-0-0-0---2~~~~~~~--2-4-5~~~~~~----|
D---------------------------------------2~~~~~~~--2-4-5~~~~~~----|

Guitar 1
E----------------------------------------------|
B----------------------------------------------|
G---4---4-4-4-----2---2-2-2--------------------|
D---4---4-4-4-----2---2-2-2---5--5-5-5--5-5-5--|
A---2---2-2-2-----0---0-0-0---5--5-5-5--5-5-5--|
D-----------------------------5--5-5-5--5-5-5--|
Guitar 2
E-------------------------------------------------------|
B-------------------------------------------10----------|
G---11--9--11~~---11-12-11----11-9-11-12-11----11-9~~~--|
D-------------------------------------------------------|
A-------------------------------------------------------|
D-------------------------------------------------------|

Verse 2  It's funny that your calling me tonight
Guitar 1
E----------------------------------------------------------------------------|
B-------------3------------------3-----------------------------------3-------|
G---2----2------2---2--4----4------4---4-----------7-------------2-----2---2-|
D---2--2---2------2----4--4---4------4----7----7-----7---7--0--0---0-----0---|
A---0------------------2------------------5--5---5-----5----0----------------|
D-----------------------------------------5-----------------0----------------|
Guitar 2
E---------------------------------------------------------------------------|
B---------------------------------------------------------------------------|
G--9~~~~~~~~~~~~--------------------------7~~~~~~~~~~~~~~~~--9b11-9p7h9~~~--|
D---------------------------------------------------------------------------|
A---------------------------------------------------------------------------|
D---------------------------------------------------------------------------|

"And yes I dreampt of you too"
Guitar 1
E----------------------------------------------------------------------------|
B-------------3------------------3-----------------------------------3-------|
G---2----2------2---2--4----4------4---4-----------7-------------2-----2---2-|
D---2--2---2------2----4--4---4------4----7----7-----7---7--0--0---0-----0---|
A---0------------------2------------------5--5---5-----5----0----------------|
D-----------------------------------------5-----------------0----------------|

E-----------------------------------------------------10---------------------|
B----------------------------------------------------------------------------|
G---9~~~~~~~~~~~~~~~------------/12-12-12-12-12-12-12---12-11h12p11-9/7-7/9~-|
D----------------------------------------------------------------------------|
A----------------------------------------------------------------------------|
D----------------------------------------------------------------------------|

"And does he know your talking to me. Will it start a fight"
Guitar 1
E----------------------------------------------------------------------------|
B-------------3------------------3-----------------------------------3-------|
G---2----2------2---2--4----4------4---4-----------7-------------2-----2---2-|
D---2--2---2------2----4--4---4------4----7----7-----7---7--0--0---0-----0---|
A---0------------------2------------------5--5---5-----5----0----------------|
D-----------------------------------------5-----------------0----------------|
Guitar 2
E---------------------------------------------------------------------------|
B---------------------------------------------------------------------------|
G--9~~~~~~~~~~~~--------------------------7~~~~~~~~~~~~~----9b11-9p7h9~~~---|
D---------------------------------------------------------------------------|
A---------------------------------------------------------------------------|
D---------------------------------------------------------------------------|

"No I don't think she has a clue"
Guitar 1
E----------------------------------------------------------------------------|
B-------------3------------------3-----------------------------------3-------|
G---2----2------2---2--4----4------4---4-----------7-------------2-----2---2-|
D---2--2---2------2----4--4---4------4----7----7-----7---7--0--0---0-----0---|
A---0------------------2------------------5--5---5-----5----0----------------|
D-----------------------------------------5-----------------0----------------|
Guitar 2
E----------------------------------------------------------10---10---10-----|
B---------------------------------------------------------------------------|
G---9~~~~~~~~~~~~~~~------------------/12-12-12-12-12-12-12---12---12---12--|
D---------------------------------------------------------------------------|
A---------------------------------------------------------------------------|
D---------------------------------------------------------------------------|

"Well, My girl's in the next room. Sometime's I wish she was you"
Guitar 1
E-------------------------------------------------------|
B---3----3----------------------3----3------------------|
G---2----2--------2----2--------4----4--------7----7----|
D---0----0--------2----2--------4----4--------7----7----|
A---0----0--------0----0--------2----2--------5----5----|
D---0----0------------------------------------5----5----|
Guitar 2
E-/14-14-10-14-10-12-10-12-10--14-10-14-10---15-10-15-10-|
B--------------------------------------------------------|
G--------------------------------------------------------|
D--------------------------------------------------------|
A--------------------------------------------------------|
D--------------------------------------------------------|

"I guess we never really moved on"
Guitar 1
E-------------------------------------------------------|
B---3----3----------------------3----3------------------|
G---2----2--------2----2--------4----4--------7----7----|
D---0----0--------2----2--------4----4--------7----7----|
A---0----0--------0----0--------2----2--------5----5----|
D---0----0------------------------------------5----5----|
Guitar 2
E-/14-14-10-14-10-12-10-12-10--14-10-14-10---15-10-15-10-|
B--------------------------------------------------------|
G--------------------------------------------------------|
D--------------------------------------------------------|
A--------------------------------------------------------|
D--------------------------------------------------------|

Chorus:"It's really good to hear your voice sayin my name
         and it sounds so sweet"
Guitar 1 & 2
E---------------------------------------------------------|
B---3----3------------------------------------------------|
G---2----2--------2----2--------12----12--------7----7----|
D---0----0--------2----2--------12----12--------7----7----|
A---0----0--------0----0--------10----10--------5----5----|
D---0----0----------------------10----10--------5----5----|

"Comin from the Lips of an Angel, Hearing those words
         it makes me weak"
Guitar 1 & 2
E--------------------------------------------------------------------|
B---3----3-----------------------------------------------------------|
G---2----2--------2----2--------12----12--------7----7-7-7-7-7-7-7---|
D---0----0--------2----2--------12----12--------7----7-7-7-7-7-7-7---|
A---0----0--------0----0--------10----10--------5----5-5-5-5-5-5-5---|
D---0----0----------------------10----10--------5----5-5-5-5-5-5-5---|

"And I never want to say goodbye, But girl you make it
         so hard to be faithful"
Guitar 1 & 2
E---------------------------------------------------------------------------|
B---------------------------------------------------------------------------|
G---4-4-4-4-4-4-4-4---2-2-2-2-2-2-2-2---------------------------------------|
D---4-4-4-4-4-4-4-4---2-2-2-2-2-2-2-2---2~~~~~~~--2-4-5~~~5--5--5--5--5-5-5-|
A---2-2-2-2-2-2-2-2---0-0-0-0-0-0-0-0---2~~~~~~~--2-4-5~~~5--5--5--5--5-5-5-|
D---------------------------------------2~~~~~~~--2-4-5~~~5--5--5--5--5-5-5-|

Solo
Guitar 1
E--------------------------------------------------------------|
B--------------------------------------------------------------|
G---3-3-3-3-3-3-3----5-5-5-5-5-5-5----7-7-7-7-7-7-7-7-7-7-7-7--|
D---3-3-3-3-3-3-3----5-5-5-5-5-5-5----7-7-7-7-7-7-7-7-7-7-7-7--|
A---1-1-1-1-1-1-1----3-3-3-3-3-3-3----5-5-5-5-5-5-5-5-5-5-5-5--|
D--------------------------------------------------------------|
Guitar 2
E---------------------------------------------------------------------------|
B---------------------------------------------------------------------------|
G--17b19-17p15h17-17b19-17p15h17-17--17-17-17/19-19-19-19-11-11-11-11-7-7-7-|
D----------------------------------------------------------x--x--x--x-x-x-x-|
A----------------------------------------------------------9--9--9--9-5-5-5-|
D---------------------------------------------------------------------------|

Guitar 1
E--------------------------------------------------------------|
B--------------------------------------------------------------|
G---3-3-3-3-3-3-3----5-5-5-5-5-5-5----7-7-7-7-7-7-7-7-7-7-7-7--|
D---3-3-3-3-3-3-3----5-5-5-5-5-5-5----7-7-7-7-7-7-7-7-7-7-7-7--|
A---1-1-1-1-1-1-1----3-3-3-3-3-3-3----5-5-5-5-5-5-5-5-5-5-5-5--|
D--------------------------------------------------------------|
Guitar 2
E----------------------------------------------------------------------------|
B----------------------------------------------------------------------------|
G--10-10-10-10--9-9-9-9-9-9-9--5-5-5-5--7-7-7--11-11-11-11-11-11-11-11-12-14-|
D---x--x--x--x--x-x-x-x-x-x-x--x-x-x-x--x-x-x---x--x--x--x--x--x--x--x--x--x-|
A---8--8--8--8--7-7-7-7-7-7-7--3-3-3-3--5-5-5---9--9--9--9--9--9--9--9-10-12-|
D----------------------------------------------------------------------------|

Guitar 1
E--------------------------------------------------------------|
B--------------------------------------------------------------|
G---3-3-3-3-3-3-3----5-5-5-5-5-5-5----7-7-7-7-7-7-7-7-7-7-7-7--|
D---3-3-3-3-3-3-3----5-5-5-5-5-5-5----7-7-7-7-7-7-7-7-7-7-7-7--|
A---1-1-1-1-1-1-1----3-3-3-3-3-3-3----5-5-5-5-5-5-5-5-5-5-5-5--|
D--------------------------------------------------------------|
Guitar 2
E------------------------------------------------------------------|
B--------------------------------------------5/7-------5/7-----5/7-|
G---5~~~~~~~~~-----------------------------------------------------|
D--------------------7h8-7--5-4-------4-5-7------4-5-7-----4-5-----|
A------------------------------------------------------------------|
D------------------------------------------------------------------|

Guitar 1
E--------------------------------------------------------------|
B--------------------------------------------------------------|
G---3-3-3-3-3-3-3----5-5-5-5-5-5-5----7-7-7-7-7-7-7-7-7-7-7-7--|
D---3-3-3-3-3-3-3----5-5-5-5-5-5-5----7-7-7-7-7-7-7-7-7-7-7-7--|
A---1-1-1-1-1-1-1----3-3-3-3-3-3-3----5-5-5-5-5-5-5-5-5-5-5-5--|
D--------------------------------------------------------------|
Guitar 2                                                    gradually bend
E-----------------------------------------21b22-20----20--------------------|
B--------------------15h17-17b18-17-15-17----------17----17-15b17-15~~~~~~--|
G---17b19-17p15h17----------------------------------------------------------|
D---------------------------------------------------------------------------|
A---------------------------------------------------------------------------|
D---------------------------------------------------------------------------|

Chorus:"It's really good to hear your voice sayin my name
         and it sounds so sweet"
Guitar 1
E----------------------------------------------|
B-------3--------------------------------------|
G-----2---2---2-----2--------5-5-5-------------|
D---0-------0-----2---2---2--5-5-5--5~~~~~~~~--|
A---------------0-------0----3-3-3--5~~~~~~~~--|
D-----------------------------------5~~~~~~~~--|
Guitar 2
E-------------------------------------------------|
B---------------------Volume Swell---13(N.H.)-----|
G-------------------------------------------------|
D-------------------------------------------------|
A-------------------------------------------------|
D-------------------------------------------------|

"Comin from the Lips of an Angel, Hearing those words
         it makes me weak"
Guitar 1 & 2
E--------------------------------------------------------------------|
B---3----3-----------------------------------------------------------|
G---2----2--------2----2--------12----12--------7----7-7-7-7-7-7-7---|
D---0----0--------2----2--------12----12--------7----7-7-7-7-7-7-7---|
A---0----0--------0----0--------10----10--------5----5-5-5-5-5-5-5---|
D---0----0----------------------10----10--------5----5-5-5-5-5-5-5---|

"And I never want to say goodbye, But girl you make it
         so hard to be faithful"
Guitar 1 & 2
E---------------------------------------------------------------------------|
B---------------------------------------------------------------------------|
G---4-4-4-4-4-4-4-4---2-2-2-2-2-2-2-2---------------------------------------|
D---4-4-4-4-4-4-4-4---2-2-2-2-2-2-2-2---2~~~~~~~--2-4-5~~~5--5--5--5--5-5-5-|
A---2-2-2-2-2-2-2-2---0-0-0-0-0-0-0-0---2~~~~~~~--2-4-5~~~5--5--5--5--5-5-5-|
D---------------------------------------2~~~~~~~--2-4-5~~~5--5--5--5--5-5-5-|

"And I never want to say goodbye, But girl you make it
         so hard to be faithful"
Guitar 1 & 2
E----------------------------------------------------------------|
B----------------------------------------------------------------|
G---4-4-4-4-4-4-4-4---2-2-2-2-2-2-2-2----------------------------|
D---4-4-4-4-4-4-4-4---2-2-2-2-2-2-2-2---2~~~~~~~--2-4-5~~~~~~----|
A---2-2-2-2-2-2-2-2---0-0-0-0-0-0-0-0---2~~~~~~~--2-4-5~~~~~~----|
D---------------------------------------2~~~~~~~--2-4-5~~~~~~----|

Guitar 1
E-----------------------------------------------|
B-----------------------------------------------|
G-------2---------------2-------2--4------------|
D-----0---0----0---0-----0---0----------7(N.H.)-|
A---2-------2----0---------0--------------------|
D-----------------------------------------------|

"Honey why are you calling me so late"
Guitar 1
E-----------------------------------------------------|
B-----------------------------------------------------|
G-------2---------------2-------2--4---------------7--|
D-----0---0----0---0-----0---0----------7(N.H.)---7---|
A---2-------2----0---------0---------------------5----|
D-----------------------------------------------5-----|
            
Hard to play? Try these video lessons and learn fast. | Correct




comments powered by Disqus
↑ Back to top | Tablatures and chords are parodies/interpretations of the original songs. You may use it for private study, scholarship, research or language learning purposes only