» » »

Wings Of A Butterfly Bass tabs (ver.3)

Artists:  A B C D E F G H I J K L M N O P Q R S T U V W X Y Z # 

Wings Of A Butterfly Bass tabs (ver.3)

H.I.M
Rating:
0/5 (0 votes)

Hard to play? Try these video lessons and learn fast.
                Tuning : Normal (E A D G) By Henkka

 INTRO
G----------------------------------------------------------------------------|
D----------------------------------------------------------------------------|
A----------------------------------------------------------------------------|
E-4-4-6----------------------------------------------------------------------|

G----------------------------------------------------------------------------|
D----------------------------------------------------------------------------|
A--------------------------4-------------------------------------------------|
E-4-4-6-6-6-0-2-4-4-4-4-4-4--4-3-0-0-4-4-------------------------------------|

G----------------------------------------------------------------------------|
D----------------------------------------------------------------------------|
A----------------------------------------3-----------------------------------|
E-4-4-6-6--4-4--4-4--4-6-6-4-6-4--4-6-4-6--6-4--0----------------------------|

  CHORUS
G----------------------------------------------------------------------------|
D----------------------------------------------------------------------------|
A-----------------------------4----------------------------------------------|
E-4-4-6-6-6-6-0-2-4-4-4-4-4-4---4-3-0-0-4-4----------------------------------|

G----------------------------------------------------------------------------|
D----------------------------------------------------------------------------|
A------------------------------------4-3--7-8--------------------------------|
E-1-4-3-1-0--1-4-0--1-4-3-1-0--1-4-0-----------------------------------------|
            
Hard to play? Try these video lessons and learn fast. | Correct




comments powered by Disqus
↑ Back to top | Tablatures and chords are parodies/interpretations of the original songs. You may use it for private study, scholarship, research or language learning purposes only