» » »

The Sacrement Tabs (ver.2)

Artists:  A B C D E F G H I J K L M N O P Q R S T U V W X Y Z # 

The Sacrement Tabs (ver.2)

H.I.M
Rating:
0/5 (0 votes)

Hard to play? Try these video lessons and learn fast.
                HIM - The Sacrament
This sounds about right, hope ya enjoy

Intro and Chorus
|------------------------------------------------------------------------
|------------------------------------------------------------------------
|--5-5-5-5-5-5-5-5-------------------------------------------------------   x 2
|--5-5-5-5-5-5-5-5----7-7-7-7-7-7-7-7------2-2-2-2-2-2-------------------
|--3-3-3-3-3-3-3-3----7-7-7-7-7-7-7-7------2-2-2-2-2-2-------------------
|---------------------5-5-5-5-5-5-5-5------0-0-0-0-0-0------------------

|------------------------------------------------------------------------
|------------------------------------------------------------------------
|--5-5-5-5-5-5-5-5------------------------------------------------------
|--5-5-5-5-5-5-5-5----7-7-7-7-7-7-7-7------2-2-2-2-2-2-----0-0-0---------
|--3-3-3-3-3-3-3-3----7-7-7-7-7-7-7-7------2-2-2-2-2-2-----0-0-0---------
|---------------------5-5-5-5-5-5-5-5------0-0-0-0-0-0-----0-0-0--------

|------------------------------------------------------------------------
|------------------------------------------------------------------------
|--5-5-5-5-5-5-5-5-------------------------------------------------------
|--5-5-5-5-5-5-5-5----7-7-7-7-7-7-7-7------2-2-2-2-2-2-------------------
|--3-3-3-3-3-3-3-3----7-7-7-7-7-7-7-7------2-2-2-2-2-2-------------------
|---------------------5-5-5-5-5-5-5-5------0-0-0-0-0-0------------------

Verses
|---------------------------------------------------------------------------------
|---------------------------------------------------------------------------------
|---------------------------------------------------------------------------------
|---7-7-7-7-7-7-7-7--------10--10--10--10--10-10--10-10---------------------------
|---7-7-7-7-7-7-7-7---------8--8---8---8---8--8---8--8----------------------------
|---5-5-5-5-5-5-5-5---------8--8---8---8---8--8---8--8----------------------------

|------------------------------------------------------------------------------------
|-----------------------------------------------------------------------------------
|--7-7-7-7-7-7-7-7---9-9-9-9-9-9-9-9-------------------------------------------------
|--7-7-7-7-7-7-7-7---9-9-9-9-9-9-9-9---10-10-10-10-10-10-10-10---5-5-5-5-5-5-5-5-5-6-
|--5-5-5-5-5-5-5-5---7-7-7-7-7-7-7-7---10-10-10-10-10-10-10-10---5-5-5-5-5-5-5-5-5-6-
|--------------------------------------8---8--8-8--8--8--8--8----3-3-3-3-3-3-3-3-3-4-

Please leave any corrections
            
Hard to play? Try these video lessons and learn fast. | Correct




comments powered by Disqus
↑ Back to top | Tablatures and chords are parodies/interpretations of the original songs. You may use it for private study, scholarship, research or language learning purposes only