» » »

Funeral Of Hearts Tabs (ver.3)

Artists:  A B C D E F G H I J K L M N O P Q R S T U V W X Y Z # 

Funeral Of Hearts Tabs (ver.3)

H.I.M
Rating:
0/5 (0 votes)
Tabs too difficult? Try these video lessons and learn fast.
                "(2)
im sure this tab it's right..

Acoustic intro
   
|--2--|--4--|--3--|--0--|--0--|
|--2--|--5--|--2--|--2--|--0--|
|--2--|--6--|--3--|--2--|--1--|
|--4--|--6--|--0--|--2--|--2--|
|--4--|--4--|-----|--0--|--2--|
|--2--|-----|-----|-----|--0--|

intro/chorus

g|---------6666666-7777777----------------|
D|-4444444-6666666-7777777-7777777-2222222|
A|-4444444-4444444-5555555-7777777-2222222|
E|-2222222-----------------5555555-0000000|

little riff after intro

e|---------------|
b|------------3-2|
g|----------2----|
D|-4--4---2------|
A|-4----4--------|
E|-2-------------|


verses

D|-------------22222-44444-22222------------|
A|-44444-66666-00000-22222-00000-66666-44444| x 2
E|-22222-44444-------------------44444-22222|

little riff after playin the 1st riff

D|-4---7p4|
A|--4p7---|

chorus

verse

Solo:

D|-7-6--4--2--2-4-6p6-7--------9p11| 
AND AGAIN!!...continue
D|-7-6--4--2--2-4-6p6-7p7--2-|
A|--------------------------4|

and then you play this

D|---0--2--3p4p6--4--2--0| 
A|-4---------------------| play this 2 times

ENJOY IT!!!!
"            
Tabs too difficult? Try these video lessons and learn fast.


comments powered by Disqus
↑ Back to top | Tablatures and chords are parodies/interpretations of the original songs. You may use it for private study, scholarship, research or language learning purposes only