» » »

H.I.M, Sweet Pandemonium Tabs (ver.2)

Artists:  A B C D E F G H I J K L M N O P Q R S T U V W X Y Z # 

Sweet Pandemonium Tabs (ver.2)

H.I.M Tabs
 Rating:
4/5 (4 votes)
Sweet Pandemonium lessons Tabs too difficult? Try these video lessons and learn fast
                HIM - Sweet Pandemonium

Intro
|--------------------------------------------------|
|--------------------------------------------------|
|--------------------------------------------------|
|--------------------------------------------------|
|-3--5--5--5--5--3--3--3--1--3--3--3--1------------|
|------------------------------------------3-3-----|

|----------------------------------------------------------|
|----------------------------------------------------------|
|----------------------------------------------------------|
|----------------------------------------------------------|
|-3--5--5--6--5--3--3--3--1--3--3--3-1---------------------|
|----------------------------------------3-3-3-3-3-3-------|

Verses
|------------------------------------------------------|
|------------------------------------------------------|
|------------------------------------------------------|
|------------------------------------------------------|
|-3--5--5-5--5-3--3--3--1--3--3--3-1-------------------|
|----------------------------------------3-3-3---------|

|-----------------------------------------------|
|-----------------------------------------------|
|-----------------------------------------------|
|-----------------------------------------------|
|-3--5-5-6-5-3-3-3-1-3-3-3-1--------------------|
|-------------------------------3-3-3-3-3-3-----|

|-----------------------------------|
|-----------------------------------|
|-----------------------------------|
|-2-2-2-2---------------------------|
|-2-2-2-2---------------------------|
|-0-0-0-0---------------------------|

Chorus
|-------------------------------------|
|-------------------------------------|
|-------5----------------------------|
|-2--3--5--5--2--3--5-----------------| x 2
|-2--3--3--5--2--3--5-----------------|
|-0--1-----3--0--1--3----------------|

Verse2
|------------------------------------------------------|
|------------------------------------------------------|
|------------------------------------------------------|
|------------------------------------------------------|
|-3--5--5-5--5-3--3--3--1--3--3--3-1-------------------|
|----------------------------------------3-3-3---------|

|-----------------------------------------------|
|-----------------------------------------------|
|-----------------------------------------------|
|-----------------------------------------------|
|-3--5-5-6-5-3-3-3-1-3-3-3-1--------------------|
|------------------------------3-3-3-3-3-3------|


Play this bit before the last chorus
|---------------------------------------------|
|---------------------------------------------|
|---------------------------------------------|
|---------------------------------------------|
|---------------------------------------------|
|-5-7-7-8-7-5-5-5-3-5-5-5-3-0-0-0-0-0-~-------|
            
Submit corrections

comments powered by Disqus
↑ Back to top | H.I.M Tabs for Sweet Pandemonium. Lyrics for acoustic guitar and electric guitar. Tablatures and chords are parodies/interpretations of the original songs. You may use it for private study, scholarship, research or language learning purposes only