» » »

H.I.M, Sweet Pandemonium Tabs (ver.1)

Artists:  A B C D E F G H I J K L M N O P Q R S T U V W X Y Z # 

Sweet Pandemonium Tabs (ver.1)

H.I.M Tabs
 Rating:
4/5 (4 votes)
Sweet Pandemonium lessons Tabs too difficult? Try these video lessons and learn fast
1
                This Is My Favourite Song On HIM`s New Album "Love Metal"

Standard Tuning : E A D G B E
Tab dude : Snaff

KEY:
h - Hammer
s.PM = Slight Palm Mute
/ = slide Up



Intro:
E---------------------------------------
B---------------------------------------
G---------------------------------------
D---------------------------------------
A-3-5-5-5-5-5-3-3-1-3-3-3-3-3-1---------
E------------------------------h3-3-3-3-

Verse (Light Strumming)
E--------------------------------------------
B--------------------------------------------
G----------------------5-5-5-5-5-5-----------
D--2-2-2-2-2-2--3-3-3--5-5-5-5-5-5-5-5-5-----
A--2-2-2-2-2-2--3-3-3--3-3-3-3-3-3-5-5-5-----
E--0-0-0-0-0-0--1-1-1--------------3-3-3-----

Pre-chorus:
E----------------
B----------------
G----------------
D---2--2--2--2---
A---2--2--2--2---
E---0--0--0--0---
s.PM-------------

Chorus:
E--------------------------------------------
B--------------------------------------------
G----------------------5-5-5-5-5-5-----------
D--2-2-2-2-2-2--3-3-3--5-5-5-5-5-5-5-5-5-----
A--2-2-2-2-2-2--3-3-3--3-3-3-3-3-3-5-5-5-----
E--0-0-0-0-0-0--1-1-1--------------3-3-3-----

Interlude: (There Are Harmonics In This But I Cant Figure Them Out
E--------------
B--------------
G-------5/6/5/6
D-2--3--5/6/5/6
A-2--3--3/4/3/4
E-0--1---------

Bridge Before Last chorus:
E------------------------------
B------------------------------
G------------------------------
D-----5-5-5------------------------
A-----5-5-5------------------------
E-----3-3-3--Repeat until 4.10 secs
s.PM - - - -


Song Structure:
Intro (rhiff)
Verse
Intro (rhiff)
Verse
Pre-chorus
chorus
Intro (rhiff)
Verse
Intro (rhiff)
Verse
Pre-Chorus
Chorus
Interlude
Intro (rhiff)
Chorus
            
Submit corrections

comments powered by Disqus
↑ Back to top | H.I.M Tabs for Sweet Pandemonium. Lyrics for acoustic guitar and electric guitar. 1 Tablatures and chords are parodies/interpretations of the original songs. You may use it for private study, scholarship, research or language learning purposes only