>
 >
Stigmata Diaboli

Stigmata Diaboli Bass Tabs

H.I.M - Stigmata Diaboli chords, tabs, tablatures, lyrics

Guitar lessons | Add/correct | Request | Top 50 tabs Artists:  A B C D E F G H I J K L M N O P Q R S T U V W X Y Z 0-9

Stigmata Diaboli Bass Tabs – H.I.M

CD, Sheet music, Poster

Do you like Stigmata Diaboli? Share with your friends now
Bass TabsBass Tabs v2Drum TabsTabsTabs v2
#------------------------------------------------------------------------------##

                           STIGMATA DIABOLI (Bassline)
                              As recorded by H.I.M.
                      (From the 1996 EP  666 WAYS TO LOVE)

Words by Ville Valo

Music by H.I.M.
Arranged by H.I.M.

Gtr I (B E A D) - 'Mige'

   Intro
    Q=158
   4/4
    Gtr I
    E E E E E E Q    +W           E E E E E E Q    +Q   H    Q
||-----------------|------------|----------------|--------------|
||o----------------|------------|----------------|--------------|
||o----------------|------------|----------------|--------------|
||--5-5-5-5-7-4-5--|-(5)--------|-5-5-5-5-7-4-2--|-(2)--4----5--|


  E E E E E E Q    +W           E E E E E E Q    +Q   H    Q
|----------------|------------|----------------|----------------||
|----------------|------------|----------------|---------------o||
|----------------|------------|----------------|-----------5---o||
|-5-5-5-5-7-4-5--|-(5)--------|-5-5-5-5-7-4-2--|-(2)--0---------||


 Verse
  Wx8
|--------||
|--------||
|--------||
|--------||


   Chorus
    E E E Q  E Q    E E E Q  E Q    E E E Q  E Q    H    H
||----------------|---------------|---------------|------------||
||o---------------|---------------|---------------|-----------o||
||o-2-4-4-4--4-4--|-2-4-4-4--4-4--|---------------|-7----6----o||
||----------------|---------------|-2-4-4-4--4-4--|------------||


   Pre-Verse
    E E E E E E E E   E E E E E E E E   E E E E E E E E   E E E E E E E E
||------------------|-----------------|-----------------|------------------||
||o-----------------|-----------------|-----------------|-----------------o||
||o-9-9-9-9-9-9-9-9-|-9-9-9-9-9-9-9-9-|-9-9-9-9-9-9-9-9-|-9-9-9-9-9-9-9-9-o||
||------------------|-----------------|-----------------|------------------||


   Verse
     E  E  E  E  E  E  E  E    E  E  E  E  E  E  E  E
||--------------------------|-------------------------|
||o-------------------------|-------------------------|
||o-11-11-11-11-11-11-11-11-|-11-11-11-11-11-11-11-11-|
||--------------------------|-------------------------|


   E  E  E  E  E  E  E  E   E E E E E E E E
|-------------------------|------------------||
|-------------------------|-----------------o||
|-11-11-11-11-11-11-11-11-|-9-9-9-9-9-9-9-9-o||
|-------------------------|------------------||


   Chorus
    E E E Q  E Q    E E E Q  E Q    E E E Q  E Q    H    H
||----------------|---------------|---------------|------------||
||o---------------|---------------|---------------|-----------o||
||o-2-4-4-4--4-4--|-2-4-4-4--4-4--|---------------|-7----6----o||
||----------------|---------------|-2-4-4-4--4-4--|------------||


   Pre-Chorus
    E E E E E E E E   E E E E E E E E   E E E E E E E E   E E E E E E E E
||------------------|-----------------|-----------------|------------------||
||o-----------------|-----------------|-----------------|-----------------o||
||o-9-9-9-9-9-9-9-9-|-9-9-9-9-9-9-9-9-|-9-9-9-9-9-9-9-9-|-9-9-9-9-9-9-9-9-o||
||------------------|-----------------|-----------------|------------------||


   E  E  E  E  E  E  E  E    E  E  E  E  E  E  E  E
|-------------------------|-------------------------|
|-------------------------|-------------------------|
|-11-11-11-11-11-11-11-11-|-11-11-11-11-11-11-11-11-|
|-------------------------|-------------------------|


   E  E  E  E  E  E  E  E    E  E  E  E  E  E  E  E
|-------------------------|--------------------------|
|-------------------------|--------------------------|
|-11-11-11-11-11-11-11-11-|-11-11-11-11-11-11-11-11--|
|-------------------------|--------------------------|


   E  E  E  E  E  E  E  E    E  E  E  E  E  E  E  E
|-------------------------|-------------------------|
|-------------------------|-------------------------|
|-12-12-12-12-12-12-12-12-|-12-12-12-12-12-12-12-12-|
|-------------------------|-------------------------|


   E  E  E  E  E  E  E  E    E  E  E  E  E  E  E  E
|-------------------------|--------------------------||
|-------------------------|--------------------------||
|-12-12-12-12-12-12-12-12-|-12-12-12-12-12-12-12-12--||
|-------------------------|--------------------------||


   Chorus
    E E E Q  E Q    E E E Q  E Q    E E E Q  E Q    H    H     4x
||----------------|---------------|---------------|------------||
||o---------------|---------------|---------------|-----------o||
||o-2-4-4-4--4-4--|-2-4-4-4--4-4--|---------------|-7----6----o||
||----------------|---------------|-2-4-4-4--4-4--|------------||


 Outro
  E E E E E E Q    +W           E E E E E E Q    +Q   H    Q
|----------------|------------|----------------|---------------|
|----------------|------------|----------------|---------------|
|----------------|------------|----------------|---------------|
|-5-5-5-5-7-4-5--|-(5)--------|-5-5-5-5-7-4-2--|-(2)--4----5---|


  E E E E E E Q    +W           E E E E E E Q    +Q   H    Q
|----------------|------------|----------------|---------------|
|----------------|------------|----------------|---------------|
|----------------|------------|----------------|-----------5---|
|-5-5-5-5-7-4-5--|-(5)--------|-5-5-5-5-7-4-2--|-(2)--0--------|


  E E E E E E Q    +W           E E E E E E Q    +Q   H    Q
|----------------|------------|----------------|---------------|
|----------------|------------|----------------|---------------|
|----------------|------------|----------------|---------------|
|-5-5-5-5-7-4-5--|-(5)--------|-5-5-5-5-7-4-2--|-(2)--4----5---|


  E E E E E E Q    +W           E E E E E E Q    +Q   H.
|----------------|------------|----------------|------------|
|----------------|------------|----------------|------------|
|----------------|------------|----------------|------------|
|-5-5-5-5-7-4-5--|-(5)--------|-5-5-5-5-7-4-2--|-(2)--0-----|


  Q.   E +H       +W           +W           +W
|---------------|------------|------------|--------|
|---------------|------------|------------|--------|
|-5----4-(4)----|-(4)--------|-(4)--------|-(4)----|
|---------------|------------|------------|--------|


  +W           +W           +W           +W
|------------|------------|------------|--------*|
|------------|------------|------------|--------*|
|-(4)--------|-(4)--------|-(4)--------|-(4)----*|
|------------|------------|------------|--------*|


Duration Legend
---------------
W - whole; H - half; Q - quarter; E - 8th; S - 16th; T - 32nd; X - 64th; a - acciaccatura
+ - note tied to previous; . - note dotted; .. - note double dotted
Uncapitalized letters represent notes that are staccato (1/2 duration)
Irregular groupings are notated above the duration line
Duration letters will always appear directly above the note/fret number it represents the
duration for.  Duration letters with no fret number below them represent rests.  Multi-
bar rests are notated in the form Wxn, where n is the number of bars to rest for.  Low
melody durations appear below the staff

Tablature Legend
----------------
 h   - hammer-on
 p   - pull-off
 b   - bend
 pb  - pre-bend
 r   - bend release (if no number after the r, then release immediately)
 /\  - slide into or out of (from/to "nowhere")
 s   - legato slide
 S   - shift slide
  - natural harmonic
[n]  - artificial harmonic
n(n) - tapped harmonic
 ~   - vibrato
 tr  - trill
 T   - tap
 TP  - trem. picking
 PM  - palm muting
\n/  - tremolo bar dip; n = amount to dip
 \n  - tremolo bar down
 n/  - tremolo bar up
/n\  - tremolo bar inverted dip
 =   - hold bend; also acts as connecting device for hammers/pulls
 <>  - volume swell (louder/softer)
 x   - on rhythm slash represents muted slash
 o   - on rhythm slash represents single note slash

Misc Legend
-----------
 |  - bar
||  - double bar
||o - repeat start
o|| - repeat end
*|  - double bar (ending)
 :  - bar (freetime)
 $  - Segno
 &  - Coda
Tempo markers -  = BPM(8/16=s8/s16), where s8 = swing 8ths, s16 = swing 16ths





Comments


Popular H.I.M tabs & chords
Behind The Crimson Door Chords
Endless Dark Chords
Heartache Every Moment 2 Chords
(Don't Fear) The Reaper Tabs
The Sacrement Tabs
Wings Of A Butterfly 1 Tabs
Your Sweet 666 2 Tabs
Face Of God 2 Ukulele
Join Me Ukulele
Too Happy To Be Alive Ukulele


Song lyrics



↑ Back to top | Tablatures and chords are parodies/interpretations of the original songs. You may use it for private study, scholarship, research or language learning purposes only
© 2014 AZChords.com Contact us | Privacy policy | DMCA | Add/correct tabs | Request tabs | Top 50 tabs