>
 >
Solitary Man 2

Solitary Man 2 Guitar Tabs

H.I.M - Solitary Man 2 chords, tabs, tablatures, lyrics

Guitar lessons | Add/correct | Request | Top 50 tabs Artists:  A B C D E F G H I J K L M N O P Q R S T U V W X Y Z 0-9

Solitary Man 2 Guitar Tabs – H.I.M

CD, Sheet music, Poster

Do you like Solitary Man 2? Share with your friends now
Bass TabsBass Tabs v2ChordsTabsTabs v2Tabs v3Ukulele
Just wait for the keyboard intro to finish then:

e|---------------------|
B|---------------------|
G|---------------------|
D|---------------------|
A|-5-4-----------------|
E|-3-2-----------------|

Chorus Riff
e|------------------------------------|
B|------------------------------------|
G|------------------------------------|
D|-9--9-9-7-9-7-7-7--7-7-7------------|
A|-7--7-7-5-7-5-5-5--5-5-5------------|
E|-7--7-7-5-7-5-5-5--5-5-5------------| 2X On the second time, from the last E5 Slide 
up to the E7.

e|---------------------|
B|---------------------|
G|---------------------|
D|---------------------|
A|-5-4-----------------|
E|-3-2-----------------|

Verse Riff 2X
e|----------------------------------------------------------------------|
B|----------------------------------------------------------------------|
G|----------------------------------------------------------------------|
D|----------------------------------------------------------------------|
A|-2-2-2-2-2-2-2-2-7-7-7-7-7-7-7-7-5-5-5-5-5-5-5-5-2-2-2-2-2-2-2-2------|
E|-0-0-0-0-0-0-0-0-5-5-5-5-5-5-5-5-3-3-3-3-3-3-3-3-0-0-0-0-0-0-0-0------|

e|-----------------------------------------------------------------------|
B|-----------------------------------------------------------------------|
G|-----------------------------------------------------------------------|
D|-----------------------------------------------------------------------|
A|-4-5-5-5-5-5-5-5-5-7-7-7-7-7-7-7-7-4-5-5-5-5-5-5-5-5-7-7-7-7-7-7-7-7---|
E|-2-3-3-3-3-3-3-3-3-5-5-5-5-5-5-5-5-2-3-3-3-3-3-3-3-5-5-5-5-5-5-5-5-5---|
p.m.

Bridge Riff
e|---------------------------------------------------------------|
B|---------------------------------------------------------------|
G|---------------------------------------------------------------|
D|------------5--5-5-5-5-7--7-7-7-7------------------------------|
A|5--5-5-5-5-3--3-3-3-3-5--5-5-5-5-7--7-7-7-7--(pickscrape)-4-5--|
E|3--3-3-3-3-----------------------5--5-5-5-5--------------2-3---|

e|------------------------------|
B|------------------------------|
G|------------------------------|
D|----------7--7-7-7------------|
A|-5--5-5-5-5--5-5-5-7--7-7-7---|
E|-3--3-3-3----------5--5-5-5---|

Chorus Riff
e|------------------------------------|
B|------------------------------------|
G|------------------------------------|
D|-9--9-9-7-9-7-7-7--7-7-7------------|
A|-7--7-7-5-7-5-5-5--5-5-5------------|
E|-7--7-7-5-7-5-5-5--5-5-5------------| X4

e|---------------------|
B|---------------------|
G|---------------------|
D|---------------------|
A|-5-4-----------------|
E|-3-2-----------------|

Verse Riff 2X
e|----------------------------------------------------------------------|
B|----------------------------------------------------------------------|
G|----------------------------------------------------------------------|
D|----------------------------------------------------------------------|
A|-2-2-2-2-2-2-2-2-7-7-7-7-7-7-7-7-5-5-5-5-5-5-5-5-2-2-2-2-2-2-2-2------|
E|-0-0-0-0-0-0-0-0-5-5-5-5-5-5-5-5-3-3-3-3-3-3-3-3-0-0-0-0-0-0-0-0------|

e|-----------------------------------------------------------------------|
B|-----------------------------------------------------------------------|
G|-----------------------------------------------------------------------|
D|-----------------------------------------------------------------------|
A|-4-5-5-5-5-5-5-5-5-7-7-7-7-7-7-7-7-4-5-5-5-5-5-5-5-5-7-7-7-7-7-7-7-7---|
E|-2-3-3-3-3-3-3-3-3-5-5-5-5-5-5-5-5-2-3-3-3-3-3-3-3-5-5-5-5-5-5-5-5-5---|
p.m.

Bridge Riff
e|---------------------------------------------------------------|
B|---------------------------------------------------------------|
G|---------------------------------------------------------------|
D|------------5--5-5-5-5-7--7-7-7-7------------------------------|
A|5--5-5-5-5-3--3-3-3-3-5--5-5-5-5-7--7-7-7-7--(pickscrape)-4-5--|
E|3--3-3-3-3-----------------------5--5-5-5-5--------------2-3---|

e|------------------------------|
B|------------------------------|
G|------------------------------|
D|----------7--7-7-7------------|
A|-5--5-5-5-5--5-5-5-7--7-7-7---|
E|-3--3-3-3----------5--5-5-5---|

Chorus Riff
e|------------------------------------|
B|------------------------------------|
G|------------------------------------|
D|-9--9-9-7-9-7-7-7--7-7-7------------|
A|-7--7-7-5-7-5-5-5--5-5-5------------|
E|-7--7-7-5-7-5-5-5--5-5-5------------| X4

I haven't tabbed out the solo just yet, i'll put it in as soon as i figure it out.

e|-0-----------------------------|
B|-0---0-------------------------|
G|-0-0---2-----------------------|
D|-2-----------------------------|
A|-2-----------------------------|
E|-0-----------------------------| 4X Then a Pickscrape

Bridge Riff
e|---------------------------------------------------------------|
B|---------------------------------------------------------------|
G|---------------------------------------------------------------|
D|------------5--5-5-5-5-7--7-7-7-7------------------------------|
A|5--5-5-5-5-3--3-3-3-3-5--5-5-5-5-7--7-7-7-7--(pickscrape)-4-5--|
E|3--3-3-3-3-----------------------5--5-5-5-5--------------2-3---|

e|------------------------------|
B|------------------------------|
G|------------------------------|
D|----------7--7-7-7------------|
A|-5--5-5-5-5--5-5-5-7--7-7-7---|
E|-3--3-3-3----------5--5-5-5---|

Chorus Riff
e|------------------------------------|
B|------------------------------------|
G|------------------------------------|
D|-9--9-9-7-9-7-7-7--7-7-7------------|
A|-7--7-7-5-7-5-5-5--5-5-5------------|
E|-7--7-7-5-7-5-5-5--5-5-5------------| X4

e|---------------------------------|
B|---------------------------------|
G|---------------------------------|
D|---------------------------------|
A|-------2-0-----------------------|
E|-0-0-3-----3-2-------------------| X4 But on the last time it doesent go back to the 0 
the E string. It ends with an E chord

e|-0------|
B|-0------|
G|-0------|
D|-2------|
A|-2------|
E|-0------|

And that's it! Hope yopu like it, rate me please!!





Comments


Popular H.I.M tabs & chords
Close To The Flame 3 Bass Tabs
Gone With The Sin 4 Bass Tabs
Dark Light Chords
Endless Dark 2 Chords
Right Here In My Arms Chords
Wicked Game Chords
Fortress Of Tears Tabs
Killing Loneliness 4 Tabs
Love Tabs
Soul On Fire Tabs


Song lyrics



↑ Back to top | Tablatures and chords are parodies/interpretations of the original songs. You may use it for private study, scholarship, research or language learning purposes only
© 2014 AZChords.com Contact us | Privacy policy | DMCA | Add/correct tabs | Request tabs | Top 50 tabs