» » »

H.I.M, Sleepwalking Past Hope Tabs (ver.3)

Artists:  A B C D E F G H I J K L M N O P Q R S T U V W X Y Z # 

Sleepwalking Past Hope Tabs (ver.3)

H.I.M Tabs
 Rating:
4/5 (4 votes)
Sleepwalking Past Hope lessons Tabs too difficult? Try these video lessons and learn fast
1
                HIM – Sleepwalking past hope

Tuning: DADGBE

Main riff and verse:
                                             
E|-----------------------------------------|
B|-----------------------------------------|
G|-----------------------------------------|
D|-------------------------8--7---3--5-5~--|
A|-------------------------8--8---3--5-5~--|
E|-0~-0-7-5-7~-0--0-7-5-7--8--7---3--5-5~--|

E|-----------------------------------------------|
B|-----------------------------------------------|
G|-----------------------------------------------|
D|-------------------------8--7---5--------------|
A|-------------------------8--8---5--------------|
E|-0~-0-7-5-7~-0--0-7-5-7--8--7---5--3-5-3-5-3 ~-|


Pre Chorus:

E|----------------|
B|----------------|
G|----------------|
D|-1~~/7~-1~~-0~~-|
A|-1~~/7~-1~~-0~~-|
E|-1~~/7~-1~~-0~~-|


Chorus:

E|--------------------------------------------------------------------|
B|--------------------------------------------------------------------|
G|-----------------55555555------------------------55555555-----------|
D|-55555555333333335555555511111111555555553333333355555555--0-0--0-0-|
A|-55555555333333333333333311111111555555553333333333333333—-0-0--0-0-|
E|-5555555533333333--------111111115555555533333333----------0-0—-0-0-|


C-part:

E|---------------------------------------------------------------------|
B|---------------------------------------------------------------------|
G|---------------------------------------------------------------------|
D|---------------------------------------------------------------------|
A|------55-3-5--7-3-3------55-3-5--7-3-3-2-3---2-3--------2-3/8~~------|
E|-0--0---------------0--0-------------------5-----3~~--5--------------|


Slow part 1:

E|-----------------------------------------|
B|-----------------------------------------|
G|-----------------------------------------|
D|-----------------------------------------|
A|-----------------------------------------|
E|-0~~~~~1~~~~~3~~~~~8--8-7-8--------------|


Slow part 2:

E|-----------------------------|
B|-----------------------------|
G|-----------------------------|
D|-5~~---7~~---8~~---0~~---7~~-|
A|-5~~---7~~---8~~---0~~---7~~-|
E|-5~~---7~~---8~~---0~~---7~~-|


New riff:

E|-------------------------------------------------------------|
B|-------------------------------------------------------------|
G|-------------------------------------------------------------|
D|-------------------------------------------------------------|
A|---------5-7---------2~~---------5-7-------------------------|
E|-0-0-0-0-5-7-0-0-0-0-2~~-0-0-0-0-5-7-0-0-0-0-0-2-3-5-3-2-3---|


Last pre-chorus:

E|-----------------------------|
B|-----------------------------|
G|-----------------------------|
D|-----------------------------|
A|---2-3---0-1-----------------|
E|-5-----3-----0-0-0-0-0-0-0-0-|



Main Riff x2
Verse x2
Pre-Chorus
Chorus x2
Main Riff x1/2
Verse x2
Pre-Chorus
Chorus x2
C-Part x2
First Solo
C-Part 
Slow part 1 x3
Slow part 2 x2
New Riff x4
Last pre-chorus
Chorus 
Outro
            
Submit corrections

comments powered by Disqus
↑ Back to top | H.I.M Tabs for Sleepwalking Past Hope. Lyrics for acoustic guitar and electric guitar. 1 Tablatures and chords are parodies/interpretations of the original songs. You may use it for private study, scholarship, research or language learning purposes only