» » »

H.I.M, Sigillum Diaboli Bass tabs (ver.1)

Artists:  A B C D E F G H I J K L M N O P Q R S T U V W X Y Z # 

Sigillum Diaboli Bass tabs (ver.1)

H.I.M Tabs
 Rating:
4/5 (4 votes)
Sigillum Diaboli  lessons Tabs too difficult? Try these video lessons and learn fast
                (1)
-STANDARD TUNING 
-this song is a piece of p**s this was the first ever song i learnt to play the whole way thru
  
:P=PRESS
:SLIDE FINGER UP
                    
G-|-------------------------------------------------------
D-|-------------------------------------------------------
A-|--------------4/6666---------------------4/6666--------
E-|-2/4444-2/4444------777-666-2/4444-2/4444------777-666-

G-|-------------------------------------------------------
D-|-------------------------------------------------------
A-|-444444444444444444444444444444444444444444444444444444
E-|------------------------------------------------------- X1

G-|----------------------------------------------
D-|----------------------------------------------
A-|----------------------------------------------
E-|---4444444444444444-77777777-66666666--------- X2

G-|-------------------------------------------------------
D-|-------------------------------------------------------
A-|--------------4/6666---------------------4/6666--------
E-|-2/4444-2/4444------777-666-2/4444-2/4444------777-666-

G-|-----------------------------------------------------------------------------
D-|-----------------------------------------------------------------------------
A-|-444444444444444444444444444444444444444444444444444444-4p-4p-4p-4p-4p4p-----
E-|----------------------------------------------------------------------------- x1

G-|-------------------------------------------------------
D-|-------------------------------------------------------
A-|--------------4/6666---------------------4/6666--------
E-|-2/4444-2/4444------777-666-2/4444-2/4444------777-666-  X2
 
PAUSE FOR THE GUITAR  PART THEN COME IN AGAIN AFTER,LISTEN TO THE SONG TO FIGURE
OUT WHEN TO COME IN

G-|---------------------------------------------------------------------------------
D-|---------------------------------------------------------------------------------
A-|44444444444444444444444444444444466666666666666666666667777777777777777777777777-
E-|--------------------------------------------------------------------------------- 
you choose the exact amount of time you play the 444466667777 part cos i think theres alot more i couldnt fit it all togetha

G-|-------------------------------------------------------
D-|-------------------------------------------------------
A-|--------------4/6666---------------------4/6666-------- 
E-|-2/4444-2/4444------777-666-2/4444-2/4444------777-666-

im not sure about the ending though ,you have to figure that one out

listen to the song to play so then you know how many time thru for each part you play ,all i did was play to the song turned my bass up a bit then played the media player and played to it and then picked up from there(thats a lot easier for all beginers)this is probably one of the best him songs ive heard

cowabunga dudes.....rock
            
Submit corrections

comments powered by Disqus
↑ Back to top | H.I.M Bass for Sigillum Diaboli. Lyrics for acoustic guitar and electric guitar. Tablatures and chords are parodies/interpretations of the original songs. You may use it for private study, scholarship, research or language learning purposes only