>
 >
Sigillium Diaboli

Sigillium Diaboli Guitar Tabs

H.I.M - Sigillium Diaboli chords, tabs, tablatures, lyrics

Guitar lessons | Add/correct | Request | Top 50 tabs Artists:  A B C D E F G H I J K L M N O P Q R S T U V W X Y Z 0-9

Sigillium Diaboli Guitar Tabs – H.I.M

CD, Sheet music, Poster

Do you like Sigillium Diaboli? Share with your friends now
TabsTabs v2
Sigillium Diaboli 


him



intro
eb-------------------------------------------------------------------------------
bb-------------------------------------------------------------------------------
gb-------------------------------------------------------------------------------
Db-2-2-2-2-2-2-2-2-2-2-2-2-2-2-2-2-2-2-2-2-2-2-2-2--2-2-2-2-2-2-2--0-0-0-0-0-0-0-
Ab-0-0-0-0-0-0-0-0-0-0-0-0-0-0-0-0-0-0-0-0-0-0-0-0--3-3-3-3-3-3-3--2-2-2-2-2-2-2-
Eb-------------------------------------------------------------------------------


eb----------------------------------------------------------------------
bb----------------------------------------------------------------------
gb-2-2-2-2-2-2-2-2-2-2-2-2--9-9-9-9-9-9-9-9--5-5-5-5-5-5-5--4-4-4-4-----
Db-2-2-2-2-2-2-2-2-2-2-2-2--9-9-9-9-9-9-9-9--5-5-5-5-5-5-5--4-4-4-4-----
Ab-0-0-0-0-0-0-0-0-0-0-0-0--7-7-7-7-7-7-7-7--3-3-3-3-3-3-3--2-2-2-2-----
Eb----------------------------------------------------------------------


eb-----------------------------------------
bb-----------------------------------------
gb-----------------------------------------
Db-0-0--5p3--0-0--5p3--0-0--5p3--0-0--5p3--
Ab-----------------------------------------
Eb-----------------------------------------

eb-------------------------------------------------------------------------------
bb-------------------------------------------------------------------------------
gb-------------------------------------------------------------------------------
Db-2-2-2-2-2-2-2-2-2-2-2-2-2-2-2-2-2-2-2-2-2-2-2-2--2-2-2-2-2-2-2--0-0-0-0-0-0-0-
Ab-0-0-0-0-0-0-0-0-0-0-0-0-0-0-0-0-0-0-0-0-0-0-0-0--3-3-3-3-3-3-3--2-2-2-2-2-2-2-
Eb-------------------------------------------------------------------------------


eb----------------------------------------------------------------------
bb----------------------------------------------------------------------
gb-2-2-2-2-2-2-2-2-2-2-2-2--9-9-9-9-9-9-9-9--5-5-5-5-5-5-5--4-4-4-4-----
Db-2-2-2-2-2-2-2-2-2-2-2-2--9-9-9-9-9-9-9-9--5-5-5-5-5-5-5--4-4-4-4-----
Ab-0-0-0-0-0-0-0-0-0-0-0-0--7-7-7-7-7-7-7-7--3-3-3-3-3-3-3--2-2-2-2-----
Eb----------------------------------------------------------------------


eb-----------------------------------------
bb-----------------------------------------
gb-----------------------------------------
Db-0-0--5p3--0-0--5p3--0-0--5p3--0-0--5p3--
Ab-----------------------------------------
Eb-----------------------------------------

solo
eb------------------------------------------------------------------------------------------
bb-10b--10b--10b--10b--10b--10b~~~~--12b--12b--12b-12b~~~--12b--12b--12b-12b~~----12--12----
gb-12b--12b--12b--12b--12b--12b~~~~--12b--12b--12b-12b~~~--12b--12b--12b-12b~~-12---12---12-
Db------------------------------------------------------------------------------------------
Ab------------------------------------------------------------------------------------------
Eb------------------------------------------------------------------------------------------

eb------------------------------------------------------------------------------------------
bb------------------------------------------------------------------------------------------
gb-------------------------14h17p14-14h16p14--12h14p12----12--------------------------------
Db----14h17p14----14h17p14-----------------------------14----14--12h14p12-----12----12-14---
Ab-17----------17----------------------------------------------------------15----15-------12
Eb------------------------------------------------------------------------------------------

eb----------------------------------------------------------------------------------------
bb---12b--12b--12b-12b~~~--12b--12b--12b-12b~~~-------------------------------------------
gb---12b--12b--12b-12b~~~--12b--12b--12b-12b~~~------9h12p9----9h12p9----9h12p9----9h12p9-
Db------------------------------------------------12--------12--------12--------12--------
Ab----------------------------------------------------------------------------------------
Eb----------------------------------------------------------------------------------------

eb------------------------------------------------------------------------------------------
bb----10h13p10---10h13p10----10h13p10----10h13p10--11b~~-----------------16b~~~--------16~~-
gb-12----------12---------12----------12------------------14b~~~~--17p14--------17p14-------
Db------------------------------------------------------------------------------------------
Ab------------------------------------------------------------------------------------------
Eb------------------------------------------------------------------------------------------

eb------------------------------------------------------------------------------------------
bb----------12bf---(12bf)--(12bf)~~~--(12bf)~~~~-------12-------12---10b---12b---13b---14b~-
gb--16~~----12bf---(12bf)--(12bf)~~~--(12bf)~~~~-12-12----12-12------12b---14b---15b---16b~-
Db--16~~------------------------------------------------------------------------------------
Ab------------------------------------------------------------------------------------------
Eb------------------------------------------------------------------------------------------





Comments


Popular H.I.M tabs & chords
In Joy And Sorrow Bass Tabs
Love 2 Bass Tabs
Dont Fear The Reaper Chords
Venus Doom 1 Chords
Behind The Crimson Door Intro 2 Tabs
Buried Alive By Love 6 Tabs
Song Or Suicide Tabs
Your Sweet Six Six Six Tabs
Beautiful Ukulele
Our Diabolical Rapture Ukulele


Song lyrics



↑ Back to top | Tablatures and chords are parodies/interpretations of the original songs. You may use it for private study, scholarship, research or language learning purposes only
© 2014 AZChords.com Contact us | Privacy policy | DMCA | Add/correct tabs | Request tabs | Top 50 tabs