» » »

H.I.M, Right Here In My Arms Bass tabs (ver.1)

Artists:  A B C D E F G H I J K L M N O P Q R S T U V W X Y Z # 

Right Here In My Arms Bass tabs (ver.1)

H.I.M Tabs
 Rating:
4/5 (4 votes)
Right Here In My Arms lessons Tabs too difficult? Try these video lessons and learn fast
1
                HIM - Right Here In My Arms



Intro
G|-----------------|-----------------|-----------------|-----------------|
D|-----------------|-----------------|-----------------|-----------------|
A|-----------------|-3-3-3-3---------|-----------------|-----------------|
E|-5-5-5-5-5-5-5-5-|---------3-3-3-3-|-0-0-0-0-0-0-0-0-|-0-0-0-0-0-0-0-0-|

Verse
G|-----------------|-----------------|-----------------|-----------------|
D|-----------------|-----------------|-----------------|-----------------|
A|-----------------|-----------------|-----------------|-----------------|
E|-5-5-5-5-5-5-5-5-|-5-5-5-5-5-5-5-5-|-5-5-5-5-5-5-5-5-|-5-5-5-5-5-5-5-5-|

G|-----------------|-----------------|-----------------|-----------------|
D|-----------------|-----------------|-----------------|-----------------|
A|-----------------|-----------------|-3-3-3-3-3-3-3-3-|-----------------|
E|-5-5-5-5-5-5-5-5-|-5-5-5-5-5-5-5-5-|-----------------|-3-3-3-3-3-3-3-3-|
                                                         if change to Fig.1
                                                         play 4+ on E5

Fig.1
G|-----------------|-----------------|-----------------|-----------------|
D|-----------------|-----------------|-----------------|-----------------|
A|-----------------|-----------------|-----------------|-----------------|
E|-----5-5-5-5-5-0-|-----0-0-0-0-0-1-|-----1-1-1-1-1-1-|-1-1-1-1-1-1-1-1-|
   1   2             1   2             1   2

Chorus
G|-----------------|-----------------|-----------------|-----------------|
D|-----------------|-----------------|-----------------|-----------------|
A|-----------------|-3-3-3-3---------|-----------------|-----------------|
E|-5-5-5-5-5-5-5-5-|---------3-3-3-3-|-0-0-0-0-0-0-0-0-|-1-1-1-1-3-3-3-3-|
                                                         if change to Solo
                                                         play 4+ on A3

Solo
G|-----------------|-----------------|-----------------|-----------------|
D|---------------1-|---1-1-----------|-----------------|-----------------|
A|---3-3-3-3-3-3---|-------1-1-1-1---|-----------------|---------------3-|
E|-----------------|---------------3-|---3-3-3-3-3-3-1-|---3-3-3-3-3-3---|
   1 +               1 +               1 +               1 +
                                                         if Solo ends
                                                         play 4+ on E3


Song structure:
Intro   2x
Verse   4x
Fig.1   1x
Chorus  4x
Verse   2x
Fig.1   1x
Chorus  4x
Solo    4x
rest
chorus  8x
            
Submit corrections

comments powered by Disqus
↑ Back to top | H.I.M Bass for Right Here In My Arms. Lyrics for acoustic guitar and electric guitar. 1 Tablatures and chords are parodies/interpretations of the original songs. You may use it for private study, scholarship, research or language learning purposes only