» » »

H.I.M, Razorblade Kiss (Solo Ver ) Tabs (ver.1)

Artists:  A B C D E F G H I J K L M N O P Q R S T U V W X Y Z # 

Razorblade Kiss (Solo Ver ) Tabs (ver.1)

H.I.M Tabs
Rating:
0/5 (0 votes)
Razorblade Kiss (Solo Ver ) lessons Tabs too difficult? Try these video lessons and learn fast
                "(2)
SOLO
|--------------------------|---------------------------|
|--------------------------|---------------------------|
|--------------------------|---------------------------|
|--------------------------|-----6----9--9--6-6\9/-6---|
|-------------7--7-7~7-----|--7----------------------7\|
|--19\-----9------------9--|---------------------------|

|--------------------------|--------------------------|
|--------------------------|--------------------------|
|--------------------------|--------------------------|
|-----6----9--9--6-6\9/-6--|-------------------9~-----|
|--9-----------------------|--7\-9~-------9/11----11--|
|--------------------------|--------------------------|

|-------------------------|---------|----------------------------|
|-------------------------|---------|--9-9--9-9--9-9--9-9--9-9---|
|-----9----6~-------------|--9--6~--|----------------------------|
|--9---------------9------|---------|----------------------------|
|-------------9/11----11--|---------|----------------------------|
|-------------------------|---------|----------------------------|

|-------------|------------------------|--7r---------------------|
|--7h9p7------|--9r------7-------------|----------9-----7--------|
|--------9-8~-|-------6-----6--9--6----|-------6-----6-----9--8--|
|-------------|------------------------|-------------------------|
|-------------|------------------------|-------------------------|
|-------------|------------------------|-------------------------|

|--------------------------------------------------|
|--------------------------------------------------|
|--9--11h9p11h9p11h9p11h9p11h9p11h9p11h9p11h9p11h9-|
|--------------------------------------------------|
|--------------------------------------------------|
|--------------------------------------------------|

|------------------------------------------------------------|
|------------------------------------------------------------|
|--11--13h11p13h11p13h11p13h11p13h11p13h11p13h11p13h11p13h11-|
|------------------------------------------------------------|
|------------------------------------------------------------|
|------------------------------------------------------------|

|----------------------------------------|
|--14--14-14-14--14-14-14--14-14-14--16--|
|----------------------------------------|
|----------------------------------------|
|----------------------------------------|
|----------------------------------------|

|----------------------------------------|
|--16--16-16-16--16-16-16--16-16-16--17--|
|----------------------------------------|
|----------------------------------------|
|----------------------------------------|
|----------------------------------------|

|----------------------------------------|------------------||
|--17--17-17-17--17-17-17--17-17-17--19~-|------------------||
|----------------------------------------|------------------||
|----------------------------------------|------------------||
|----------------------------------------|------------------||
|----------------------------------------|------------------||
"            

comments powered by Disqus
↑ Back to top | H.I.M Tabs for Razorblade Kiss (Solo Ver ). Lyrics for acoustic guitar and electric guitar. Tablatures and chords are parodies/interpretations of the original songs. You may use it for private study, scholarship, research or language learning purposes only