» » »

Razorblade Kiss Tabs (ver.4)

Artists:  A B C D E F G H I J K L M N O P Q R S T U V W X Y Z # 

Razorblade Kiss Tabs (ver.4)

H.I.M
Rating:
0/5 (0 votes)

Hard to play? Try these video lessons and learn fast.
                (Solo)
H.I.M.-"Razorblade Kiss" (solo)

s= slide
p= pull off
h= hammer on

---------------------------10----10----------10-10-------------------10----10----12-
----------8-8-8----8-10s12----12----12s10s12-------12s10-8h10--10s12----12----------
--s10--10-------10------------------------------------------------------------------

-------------10------12b(14)(14)-(14)(14)-(14)(14)-(14)(14)-12r10s9-
-------10-------12--------------------------------------------------
-10h12----12--------------------------------------------------------

-10----------------13-----11----10---------------------------------
-------12---10---------------------12---10h12p10h12p10h12p10h12p10-
-----12--12----12------12----12------------------------------------

-----------------------------10-------10--10--10--10--10--10---12-------12--12--12-
-----------------------------13b(15)-(15)(15)(15)(15)(15)(15)--15b(17)-(17)(17)(17)
12h14p12h14p12h14p12h14p12---------------------------------------------------------

-12--12--12---13-------13--13--13--13--13--13---15-------15--15--15--15--15--15---15-
(17)(17)(17)--16b(18)-(18)(18)(18)(18)(18)(18)--18b(20)-(20)(20)(20)(20)(20)(20)-(20)
            
Hard to play? Try these video lessons and learn fast. | Correct




comments powered by Disqus
↑ Back to top | Tablatures and chords are parodies/interpretations of the original songs. You may use it for private study, scholarship, research or language learning purposes only