» » »

H.I.M, My Arms Tabs (ver.1)

Artists:  A B C D E F G H I J K L M N O P Q R S T U V W X Y Z # 

My Arms Tabs (ver.1)

H.I.M Tabs
Rating:
0/5 (0 votes)
My Arms lessons Tabs too difficult? Try these video lessons and learn fast
                right here in my arms


h.i.m






intro
   repeat
e:------7--------7--------7-------7---|
B:--------8--------8--------8-------8-|
G:---9---------9--------9-------9-----|
D:-7---------7--------7-------7-------|
A:------------------------------------|
E:------------------------------------|

solo
e:-------------------------------------------------------------------------------------22b-|
B:---------------------------------------------------------------------------------19------|
G:-11-11-11-11--9-9-9--7-7-7--6-6-6/-------------------------------------21-21-21----------|
D:-------------------------------------7---------------9-9-9-9--11--12---------------------|
A:----------------------------------------9/---5-------------------------------------------|
E:-------------------------------------------------7/--------------------------------------|



e:22-22-22--21b-21-21--20b-20-20-20-20-20-20-------------------------19b-19-19-19----------|
B:---------------------------------------------18-18-18-18p16-16-16----------------16-16-16|
G:---------------------------------------------18-18-18-18p16-16-16----------------16-16-16|
D:-----------------------------------------------------------------------------------------|
A:-----------------------------------------------------------------------------------------|
E:-----------------------------------------------------------------------------------------|

e:-------------------------------------------------------------------|
B:16-16-16-14-14-14-14-14-14--19b-19-19-19--19-19-19-19-19--19b-19b/-|
G:16-16-16-14-14-14-14-14-14----------------19-19-19-19-19--19b-19b/-|
D:-------------------------------------------------------------------|
A:-------------------------------------------------------------------|
E:-------------------------------------------------------------------|
            
Submit corrections

comments powered by Disqus
↑ Back to top | H.I.M Tabs for My Arms. Lyrics for acoustic guitar and electric guitar. Tablatures and chords are parodies/interpretations of the original songs. You may use it for private study, scholarship, research or language learning purposes only