» » »

Kiss Of Dawn Tabs (ver.2)

Artists:  A B C D E F G H I J K L M N O P Q R S T U V W X Y Z # 

Kiss Of Dawn Tabs (ver.2)

H.I.M
Rating:
0/5 (0 votes)

Hard to play? Try these video lessons and learn fast.
                HIM-Kiss of Dawn
Tuning: Standard

Main Riff:

|-------------------------------------------------|
|-------------------------------------------------|
|-------------------------------------------------|
|-------------------------------------------------|
|-----------/14-/9-9-9-9-/-5-5-5-/-7-7-7-7--------|
|0-0-0-0--/12-/7-7-7-7-/-3-3-3-/-5-5-5-5----------|


|-----------------------------------------------------|
|-----------------------------------------------------|
|-----------------------------------------------------|
|-----------------------------------------------------|
|-----------/14-/9-9-9-9-/-5-5-5-/-7-7-7-7------------|
|0-0-0-0--/12-/7-7-7-7-/-3-3-3-/-5-5-5-5--*5----------|

|--------------------------------------------------------------------------|
|--------------------------------------------------------------------------|
|--------------------------------------------------------------------------|
|--------------------------------------------------------------------------|
|-----------/14-/9-9-9-9-/-5-5-5-/-7-7-7-7---10-10--5-7-5-7----------------|
|0-0-0-0--/12-/7-7-7-7-/-3-3-3-/-5-5-5-5—8—8—3-5-3-5-*3--------------------| x2

Pre-Verse (after bass intro)
| ------------------------|
|-------------------------|
| ------------------------|
|--0----------------------|
 --0----------------------|
|-------------------------| Let it ring…..

Verse

|-------------------------------|
|-------------------------------|
|-------------------------------|
|-----------------------0-------|
|-2-2—2-4-2—2-2--0--------------|
|-0-0---0-2-0---0-0-------------|x4


After fourth  time in verse (pre-verse)

| -----------------------------------------------------------|
| -----------------------------------------------------------|
|------------------------------------------------------------|
| 2----------------------------3-4-5-6-7---------------------|
| 0----------------------------1-2-3-4-5-3---2---------------|
|---////pick scr*pe////////////------------1----0------------|

Chorus

|-------------------------------------------------0---------------------------------------------|
|-----------------------------------------------3------------------1---------0------------------|
|-------0-------------0-----------0---------2------------------0----------0---------------------|
|-----0-------------0-----------2---------0------------------2----------0--------------------0--|
|---2-------------2-----------2----------------------------3----------2---------2-2--2-4-2-0----|
|-3-------------2-----------0----------------------------------------------------0-0--0-2-0-----|
x2


Verse

Pre-Chorus

Chorus


Pre solo

|--------------------------|
|--------------------------|
|--------------------------|
|-----------------------0--|
|--2---4---5---4—2-0-------|
|--0---2---3---2—0---------|

Sorry, I don’t have the solo yet!
            
Hard to play? Try these video lessons and learn fast. | Correct




comments powered by Disqus
↑ Back to top | Tablatures and chords are parodies/interpretations of the original songs. You may use it for private study, scholarship, research or language learning purposes only