>
 >
Kiss Of Dawn 1

Kiss Of Dawn 1 Guitar Tabs

H.I.M - Kiss Of Dawn 1 chords, tabs, tablatures, lyrics

Guitar lessons | Add/correct | Request | Top 50 tabs Artists:  A B C D E F G H I J K L M N O P Q R S T U V W X Y Z 0-9

Kiss Of Dawn 1 Guitar Tabs – H.I.M

CD, Sheet music, Poster

Do you like Kiss Of Dawn 1? Share with your friends now
Bass TabsChordsTabsTabs v2Ukulele
HIM-Kiss of Dawn
Tuning: Standard

Main Riff:

|-------------------------------------------------|
|-------------------------------------------------|
|-------------------------------------------------|
|-------------------------------------------------|
|-----------/14-/9-9-9-9-/-5-5-5-/-7-7-7-7--------|
|0-0-0-0--/12-/7-7-7-7-/-3-3-3-/-5-5-5-5----------|


|-----------------------------------------------------|
|-----------------------------------------------------|
|-----------------------------------------------------|
|-----------------------------------------------------|
|-----------/14-/9-9-9-9-/-5-5-5-/-7-7-7-7------------|
|0-0-0-0--/12-/7-7-7-7-/-3-3-3-/-5-5-5-5--*5----------|

|--------------------------------------------------------------------------|
|--------------------------------------------------------------------------|
|--------------------------------------------------------------------------|
|--------------------------------------------------------------------------|
|-----------/14-/9-9-9-9-/-5-5-5-/-7-7-7-7---10-10--5-7-5-7----------------|
|0-0-0-0--/12-/7-7-7-7-/-3-3-3-/-5-5-5-5𨃌3-5-3-5-*3--------------------| x2

Pre-Verse (after bass intro)
| ------------------------|
|-------------------------|
| ------------------------|
|--0----------------------|
 --0----------------------|
|-------------------------| Let it ring..

Verse

|-------------------------------|
|-------------------------------|
|-------------------------------|
|-----------------------0-------|
|-2-22-4-22-2--0--------------|
|-0-0---0-2-0---0-0-------------|x4


After fourth  time in verse (pre-verse)

| -----------------------------------------------------------|
| -----------------------------------------------------------|
|------------------------------------------------------------|
| 2----------------------------3-4-5-6-7---------------------|
| 0----------------------------1-2-3-4-5-3---2---------------|
|---////pick scrape////////////------------1----0------------|

Chorus

|-------------------------------------------------0---------------------------------------------|
|-----------------------------------------------3------------------1---------0------------------|
|-------0-------------0-----------0---------2------------------0----------0---------------------|
|-----0-------------0-----------2---------0------------------2----------0--------------------0--|
|---2-------------2-----------2----------------------------3----------2---------2-2--2-4-2-0----|
|-3-------------2-----------0----------------------------------------------------0-0--0-2-0-----|
x2


Verse

Pre-Chorus

Chorus


Pre solo

|--------------------------|
|--------------------------|
|--------------------------|
|-----------------------0--|
|--2---4---5---42-0-------|
|--0---2---3---20---------|

Sorry, I don抰 have the solo yet!





Comments


Popular H.I.M tabs & chords
Beyond Redemption 3 Bass Tabs
Wings Of A Butterfly Bass Tabs
Join Me 1 Chords
One Last Time Chords
Solitary Man Chords
Acoustic Funeral For Love In Limbo Tabs
Beyond Redemption 1 Tabs
In The Nightside Of Eden Intro 1 Tabs
Razorblade Kiss 6 Tabs
Wings Of A Butterfly 1 Tabs


Song lyrics



↑ Back to top | Tablatures and chords are parodies/interpretations of the original songs. You may use it for private study, scholarship, research or language learning purposes only
© 2014 AZChords.com Contact us | Privacy policy | DMCA | Add/correct tabs | Request tabs | Top 50 tabs