>
 >
Kiss Of Dawn

Kiss Of Dawn Bass Tabs

H.I.M - Kiss Of Dawn chords, tabs, tablatures, lyrics

Guitar lessons | Add/correct | Request | Top 50 tabs Artists:  A B C D E F G H I J K L M N O P Q R S T U V W X Y Z 0-9

Kiss Of Dawn Bass Tabs – H.I.M

CD, Sheet music, Poster

Do you like Kiss Of Dawn? Share with your friends now
Bass TabsChordsTabsTabs v2Ukulele
Kiss Of Dawn-HIM  (SINGLE VERSION)

5-stg-bass(or standard b tuning[BEAD])
-------------------------------------------------------------
INTRO/PRE-VERSE

|------------------|           |-----------------|--------------|
|------------------|Play The   |-----------------|--------------|  x2
|------------------|1st then   |-----------------|--------------|
|0000-5/777-333/555|play other |0000-5/777-333-5b|0~~--3-5-3-5-3|
|------------------|2 swapping |-----------------|---3----------|

|---------------|------------|
|---------------|------------|
|---------------|------------|
|0-0-5h7p0-3-3--|0-0-5h7p0-3-|
|--------------3|-----------3|

VERSE
               
|---------------|       |------------|
|---------------|Play x3|------------|
|---------------|<======|------------|
|0-0-5h7p0-3-3--| Then  |0-0-5h7p0-3-|
|--------------3|======>|-----------3|

PRE-CHORUS

|--------------------|
|--------------------|
|--------------------|
|5~~~~3~~53-5--------|
|------------6~~~~3~~|

CHORUS

|--------------------------------|
|--------------------------------|
|--------------------------------|
|3~~32~~0~~0--------3~~3-00000000|  X2
|-----------3~~31~~1-------------|

INTRO/PRE-VERSE
VERSE
PRE-CHORUS
CHORUS

BRIDGE

|----------|---------------|-------------|--------------|--------|
|----------|---------------|-------------|--------------|--------|
|----------|---------------|-------------|--------------|--------|
|53~~~~~~~~|0~~3~~7-5-3-0~~|---------5--5|5~~7~~3/5\3~~0|--------|
|----------|---------------|0~~03~~03-30-|--------------|33333333|

SOLO(intro/pre-verse riff)stay on the 5th fret bend for a bar 2nd time round

CHORUS X4





Comments


Popular H.I.M tabs & chords
Death Is In Love With Us 2 Bass Tabs
Stigmata Diaboli Bass Tabs
Sweet Pandomonium Bass Tabs
Don't Close Your Heart Chords
Drawn And Quartered Tabs
Heartache Every Moment (Solo) Tabs
Heartkiller Tabs
In Love And Lonely Tabs
Lose You Tonight 3 Tabs
Venus Doom Ukulele


Song lyrics



↑ Back to top | Tablatures and chords are parodies/interpretations of the original songs. You may use it for private study, scholarship, research or language learning purposes only
© 2014 AZChords.com Contact us | Privacy policy | DMCA | Add/correct tabs | Request tabs | Top 50 tabs