» » »

H.I.M, Killing Lonliness Tabs (ver.1)

Artists:  A B C D E F G H I J K L M N O P Q R S T U V W X Y Z # 

Killing Lonliness Tabs (ver.1)

H.I.M Tabs
 Rating:
4/5 (4 votes)
Killing Lonliness lessons Tabs too difficult? Try these video lessons and learn fast
1
                E|------------------------------------------------------|
B|-------4-----------3----------------------------------|
G|---------------------------3---5----------------------|
D|----5---------3---------------------------------------|
A|--3---------1-----------6-----------------------------|
D|----------------------6-------------------------------|

E|--------------------------------------------------------------------------|
B|--------------------------------------------------------------------------|
G|-------------8-8-8--------------------------------------------------------|
D|-10-10-10----8-8-8----8-8-8-----5-5-5-5-6-6----5-6-6-6----5-6-------------|
A|-10-10-10----6-6-6----8-8-8-----5-5-5-5-6-6----5-6-6-6----5-6-------------|
D|-10-10-10-------------8-8-8-----5-5-5-5-6-6----5-6-6-6----5-6-----5~------|


E|---------------------------------------------------------------------------|
B|---------------------------------------------------------------------------|
G|-------------8-8-8---------------------------------------------------------|
D|-10-10-10----8-8-8----8-8-8-----5-5-5-5-6-6----5-6-6-6----5-6--------------|
A|-10-10-10----6-6-6----8-8-8-----5-5-5-5-6-6----5-6-6-6----5-6--------------|
D|-10-10-10-------------8-8-8-----5-5-5-5-6-6----5-6-6-6----5-6-----8~-------|

E|------------------------------------------------------------------------|
B|------------------------------------------------------------------------|
G|--------------8-8-8-----------------------------------------------------|
D|-10-10-10----8-8-8----8-8-8-----5-5-5-5-6-6----5-6-6-6----5-6-----------|
A|-10-10-10----6-6-6----8-8-8-----5-5-5-5-6-6----5-6-6-6----5-6-----------|
D|-10-10-10-------------8-8-8-----5-5-5-5-6-6----5-6-6-6----5-6-----5~----|


E|----------------------------------------------------------------|
B|----------------------------------------------------------------|
G|----------------------------------------------------------------|
D|-10-----------5----------3----------6---------------------------|
A|-10(15x)------5(15x)-----3(15x)-----6(15x)----------------------|
D|-10-----------5----------3----------6---------------------------|
   .            .          .          .

E|-------------------|
B|-------------------|
G|-------------------|
D|-------------------|
A|-----6-5-----------|
D|------------5~-----|

E|--------------------------------------------------------------|
B|--------------------------------------------------------------|
G|--------------------------------------------------------------|
D|-10-----------5----------3----------6-1-6-1-6-1------5-5------|
A|-10(15x)------5(15x)-----3(15x)-----6-1-6-1-6-1------3-3------|
D|-10-----------5----------3----------6-1-6-1-6-1------5-5------|
   .            .          .

E|----------------------------|(2x)
B|----------------------------|
G|----------8-----------------|
D|-10-------8(8x)---6---------|
A|-10(8x)---6-------6(16x)----|
D|-10---------------6---------|

E|--------------------------------------------------|
B|--------------------------------------------------|
G|--------------------------------------------------|
D|---1---------8---------5-5------6-6-----6---------|
A|---1(4x)-----8(4x)-----5-5------6-6-----6---------|
D|---1---------8---------5-5------6-6-----6---------|

E|-----------------------------------------------------|
B|-----------------------------------------------------|
G|-----------------------------------------------------|
D|---1---------8---------5--------6--------------------|
A|---1(4x)-----8(4x)-----5(6x)----6(6x)----------------|
D|---1---------8---------5--------6--------------------|
                         .        .
this part stops here ^
E|---------3-----1---1-----------|
B|-------4---4-----4---4------1--|
G|---3h5-------3-----3---3--3----|
D|-------------------------------|
A|-------------------------------|
D|-------------------------------|

E|---------------------------------------------------------------------------|
B|---------------------------------------------------------------------------|
G|-------------8-8-8---------------------------------------------------------|
D|-10-10-10----8-8-8----8-8-8-----5-5-5-5-6-6----5-6-6-6----5-6--------------|
A|-10-10-10----6-6-6----8-8-8-----5-5-5-5-6-6----5-6-6-6----5-6--------------|
D|-10-10-10-------------8-8-8-----5-5-5-5-6-6----5-6-6-6----5-6-----8~-------|

E|---------------------------------------------------------------------------|
B|---------------------------------------------------------------------------|
G|-------------8-8-8---------------------------------------------------------|
D|-10-10-10----8-8-8----8-8-8-----5-5-5-5-6-6----5-6-6-6----5-6--------------|
A|-10-10-10----6-6-6----8-8-8-----5-5-5-5-6-6----5-6-6-6----5-6--------------|
D|-10-10-10-------------8-8-8-----5-5-5-5-6-6----5-6-6-6----5-6-----5~-------|

E|----------------------------------------------------------------|
B|----------------------------------------------------------------|
G|----------------------------------------------------------------|
D|-10-----------5----------3----------6---------------------------|
A|-10(15x)------5(15x)-----3(15x)-----6(15x)----------------------|
D|-10-----------5----------3----------6---------------------------|
   .            .          .          .

E|-------------------|
B|-------------------|
G|-------------------|
D|-------------------|
A|-----6-5-----------|
D|------------5~-----|

E|--------------------------------------------------------------|
B|--------------------------------------------------------------|
G|--------------------------------------------------------------|
D|-10-----------5----------3----------6-1-6-1-6-1------5-5------|
A|-10(15x)------5(15x)-----3(15x)-----6-1-6-1-6-1------3-3------|
D|-10-----------5----------3----------6-1-6-1-6-1------5-5------|
   .            .          .
E|----------------------------|(2x)
B|----------------------------|
G|----------8-----------------|
D|-10-------8(8x)---6---------|
A|-10(8x)---6-------6(16x)----|
D|-10---------------6---------|

E|--------------------------------------------------|
B|--------------------------------------------------|
G|--------------------------------------------------|
D|---1---------8---------5-5------6-6-----6---------|
A|---1(4x)-----8(4x)-----5-5------6-6-----6---------|
D|---1---------8---------5-5------6-6-----6---------|
stops here again      ^
E|---------3-----1---1-----------|
B|-------4---4-----4---4------1--|
G|---3h5-------3-----3---3--3----|
D|-------------------------------|
A|-------------------------------|
E|-------------------------------|
goes again for bridge
            
Submit corrections

comments powered by Disqus
↑ Back to top | H.I.M Tabs for Killing Lonliness. Lyrics for acoustic guitar and electric guitar. 1 Tablatures and chords are parodies/interpretations of the original songs. You may use it for private study, scholarship, research or language learning purposes only