>
 >
Killing Loneliness 5

Killing Loneliness 5 Guitar Tabs

H.I.M - Killing Loneliness 5 chords, tabs, tablatures, lyrics

Guitar lessons | Add/correct | Request | Top 50 tabs Artists:  A B C D E F G H I J K L M N O P Q R S T U V W X Y Z 0-9

Killing Loneliness 5 Guitar Tabs – H.I.M

CD, Sheet music, Poster

Do you like Killing Loneliness 5? Share with your friends now
Bass TabsChordsChords v2Chords v3Chords v4TabsTabs v2Tabs v3Tabs v4Tabs v5Tabs v6Ukulele
-------------------------------------------------------------------------------
               Killing Loneliness- H.I.M (His Infernal Majesty)
-------------------------------------------------------------------------------

/  slide up
\  slide down
h  hammer-on
p  pull-off
~  vibrato
x  Palm Mute

Order of song:
Intro
Verse
Chorus
Verse
Bridge
Chorus
Outro

Tuning: Drop C

Intro:
e|-----------------------------|
B|------6-------5----------3---|
G|---------------------3-------|
D|----7-------5----------3-----|
A|---5-------3-------1---------|
E|-----------------------------|

e|---------------------------------------------------------------------------|
B|---------------------------------------------------------------------------|
G|---------------------------------------------------------------------------|
D|---5-5-5-5--10-10-10-------------------------------------------------------|
A|---7-7-7-7--8--8--8---10-10-10-10--7-7-7--8-8-8----7-8-8-8-7-8-------------|
E|----------------------10-10-10-10--7-7-7--8-8-8----7-8-8-8-7-8-7~~---------|

e|---------------------------------------------------------------------------|
B|---------------------------------------------------------------------------|
G|---------------------------------------------------------------------------|
D|---5-5-5-5--10-10-10-------------------------------------------------------|
A|---7-7-7-7--8--8--8---10-10-10-10--7-7-7--8-8-8----7-8-8-8-7-8-------------|
E|----------------------10-10-10-10--7-7-7--8-8-8----7-8-8-8-7-8-10~~--------|

e|---------------------------------------------------------------------------|
B|---------------------------------------------------------------------------|
G|---------------------------------------------------------------------------|
D|---5-5-5-5--10-10-10-------------------------------------------------------|
A|---7-7-7-7--8--8--8---10-10-10-10--7-7-7--8-8-8----7-8-8-8-7-8-------------|
E|----------------------10-10-10-10--7-7-7--8-8-8----7-8-8-8-7-8-7~~---------|

Verse:
e|---------------------------------------------------------------------|
B|---------------------------------------------------------------------|
G|---------------------------------------------------------------------|
D|---------------------------------------------------------------------|
A|-----5555-5555555-555------------------------------------------------|
E|----------------------7777-7777777-777-5555-5555555-555-0000-0000000-|
       xxxx xxxxxxx xxx xxxx xxxxxxx xxx xxx  xxxxxxx xxx xxxx xxxxxxx

e|----------|
B|----------|
G|----------|
D|----------|
A|--8-7-----|
E|------7---|<-- At this part Ville and Linde are playing at the same time.
              They are playing two different parts but I mixed them
              together to sound more like the recording.

e|------------------------------------------------------|
B|------------------------------------------------------|
G|------------------------------------------------------|
D|------------------------------------------------------|
A|-55-5555555-555---------------------------------------|
E|------------------7777-7777777-777-5555-5555555-555---|
   xx xxxxxxx xxx   xxxx xxxxxxx xxx xxxx xxxxxxx xxx

e|--------------------------|
B|--------------------------|
G|--------------------------|
D|-3----3----3----3-----5-5-|
A|-1-3--1-3--1-3--1-3---3-3-|
E|---3----3----3----3---5-5-|

Chorus:
   (8xs)   (8xs)   (16xs)
e|-------|-------|-------|
B|-------|-------|-------|
G|---2---|-------|---3---|  2xs
D|---0---|---3---|---3---|
A|---0---|---3---|---1---|
E|---0---|---3---|-------|

e|----------|----------|
B|----------|----------|
G|----------|--55-5-5--|
D|--3----3--|--55-5-5--|
A|--3----3--|--33-3-3--|
E|--3----3--|----------|

e|------|---------|
B|------|---------|
G|------|--33--3--|
D|--00--|--33--3--|
A|--00--|--11--1--|
E|--00--|---------|

At this repeat of the little line above the second guitar is playing something I don't 

e|----------|----------|
B|----------|----------|
G|----------|--55-5-5--|
D|--3----3--|--55-5-5--|
A|--3----3--|--33-3-3--|
E|--3----3--|----------|

e|--------------------|
B|--------------------|
G|--------------------|
D|-----------3333-x\--|
A|--00000000-1111-x\--|
E|--00000000------x\--|
    xxxxxxxx xxxx


e|---------------------------------------------------------------------------|
B|---------------------------------------------------------------------------|
G|---------------------------------------------------------------------------|
D|---5-5-5-5--10-10-10-------------------------------------------------------|
A|---7-7-7-7--8--8--8---10-10-10-10--7-7-7--8-8-8----7-8-8-8-7-8-------------|
E|----------------------10-10-10-10--7-7-7--8-8-8----7-8-8-8-7-8-7~~---------|

e|---------------------------------------------------------------------------|
B|---------------------------------------------------------------------------|
G|---------------------------------------------------------------------------|
D|---5-5-5-5--10-10-10-------------------------------------------------------|
A|---7-7-7-7--8--8--8---10-10-10-10--7-7-7--8-8-8----7-8-8-8-7-8-------------|
E|----------------------10-10-10-10--7-7-7--8-8-8----7-8-8-8-7-8-10~~--------|

Bridge:

The bridge is the same as the chorus but instead of the main riff of the song it plays 
is tabbed at the end of this part.

(8xs)   (8xs)   (16xs)
e|-------|-------|-------|
B|-------|-------|-------|
G|---2---|-------|---3---|  2xs
D|---0---|---3---|---3---|
A|---0---|---3---|---1---|
E|---0---|---3---|-------|

e|----------|----------|
B|----------|----------|
G|----------|--55-5-5--|
D|--3----3--|--55-5-5--|
A|--3----3--|--33-3-3--|
E|--3----3--|----------|

e|------|---------|
B|------|---------|
G|------|--33--3--|
D|--00--|--33--3--|
A|--00--|--11--1--|
E|--00--|---------|

e|----------|----------|
B|----------|----------|
G|----------|--55-5-5--|
D|--3----3--|--55-5-5--|
A|--3----3--|--33-3-3--|
E|--3----3--|----------|

e|--------------------|
B|--------------------|
G|--------------------|
D|-----------3333-x\--|
A|--00000000-1111-x\--|
E|--00000000------x\--|
    xxxxxxxx xxxx

e|-------5-------5-------5---------|-------3-------3-------3--------|
B|-1/3-3-----3-------3-------3---3-|---3-------3-------3------3---3-|
G|-------------5-------5-------5---|-5---5-------5-------5------5---|
D|---------------------------------|--------------------------------|
A|---------------------------------|--------------------------------|
E|---------------------------------|--------------------------------|

e|-------------5----------3----------1-------|
B|---------------3---3------3---3------3---3-|
G|-----------------2----------2----------2---| 2xs
D|-------------------------------------------|
A|--0-0-3-0----------------------------------|
E|--0-0-3-0----------------------------------|

e|--------------------------|
B|--------------------------|
G|--------------------------|
D|----3----3----3----3--5-5-|
A|--3-1--3-1--3-1--3-1--3-3-|
E|--3----3----3----3----5-5-|

e|-------------------------------------|
B|-------------------------------------|
G|-------------------------------------|2xs
D|-------------------------------------|
A|--0-0-3-0----0-0-0-0-3-0---5-0---5-7-|
E|--0-0-3-0----0-0-0-0-3-0---5-0---5-7-|

e|--------------------------|
B|--------------------------|
G|--------------------------|2xs
D|-3----3----3----3-----5-5-|
A|-1-3--1-3--1-3--1-3---3-3-|
E|---3----3----3----3---5-5-|

Outro:

On these next two bars of the outro Ville is playing along with Linde on a part that is 
higher. You can hear this on the recording. Since Linde is lead I put the part that he 
on the tab.

e|---------------------------------------------------------------------------|
B|---------------------------------------------------------------------------|
G|---------------------------------------------------------------------------|
D|---5-5-5-5--10-10-10-------------------------------------------------------|
A|---7-7-7-7--8--8--8---10-10-10-10--7-7-7--8-8-8----7-8-8-8-7-8-------------|
E|----------------------10-10-10-10--7-7-7--8-8-8----7-8-8-8-7-8-7~~---------|

e|---------------------------------------------------------------------------|
B|---------------------------------------------------------------------------|
G|---------------------------------------------------------------------------|
D|---5-5-5-5--10-10-10-------------------------------------------------------|
A|---7-7-7-7--8--8--8---10-10-10-10--7-7-7--8-8-8----7-8-8-8-7-8-------------|
E|----------------------10-10-10-10--7-7-7--8-8-8----7-8-8-8-7-8-10~~--------|

e|-----------------------------|
B|------6-------5----------3---|
G|---------------------3-------| 2xs
D|----7-------5----------3-----|
A|---5-------3-------1---------|
E|-----------------------------|

me feedback as this is my first tab...thanks.





Comments


Popular H.I.M tabs & chords
Death Is In Love With Us 2 Bass Tabs
Passions Killing Floor 2 Bass Tabs
Soul On Fire 2 Bass Tabs
This Fortress Of Tears 2 Bass Tabs
Buried Alive By Love Chords
Dead Lovers Lane Chords
Join Me 1 Chords
Close To The Flame 4 Tabs
It's All Tears Tabs
Loves Requiem (Solo) Tabs


Song lyrics



↑ Back to top | Tablatures and chords are parodies/interpretations of the original songs. You may use it for private study, scholarship, research or language learning purposes only
© 2014 AZChords.com Contact us | Privacy policy | DMCA | Add/correct tabs | Request tabs | Top 50 tabs