>
 >
Killing Loneliness 4

Killing Loneliness 4 Guitar Tabs

H.I.M - Killing Loneliness 4 chords, tabs, tablatures, lyrics

Guitar lessons | Add/correct | Request | Top 50 tabs Artists:  A B C D E F G H I J K L M N O P Q R S T U V W X Y Z 0-9

Killing Loneliness 4 Guitar Tabs – H.I.M

CD, Sheet music, Poster

Do you like Killing Loneliness 4? Share with your friends now
Bass TabsChordsChords v2Chords v3Chords v4TabsTabs v2Tabs v3Tabs v4Tabs v5Tabs v6Ukulele
Section: Whole Song
Instrument: Keyboard/Piano, Guitar(s)
Difficulty: Intermediate

Intro(Keyboard/Piano)
0:00-0:12
|--------------------|
|----5-----4---------|
|----------------3-5-|x2
|--5-----5-----------|
|-3-----3------6-----|
|-------------4------|

Intro(Guitar)
0:07-0:14
|---------------------------------------------------------|
|---------------------------------------------------------|
|---------------------------------------------------------|
|------------8-8-8----------------------------------------|
|10-10-10-10-6-6-6-8-8-8-8--5-5-5-6-6-6----5-6-6-6-5-6-5--|
|8--8--8--8--------6-6-6-6--3-3-3-4-4-4----3-4-4-4-3-4-3--|

0:14-0:21
|---------------------------------------------------------|
|---------------------------------------------------------|
|---------------------------------------------------------|
|------------8-8-8----------------------------------------|
|10-10-10-10-6-6-6-8-8-8-8--5-5-5-6-6-6----5-6-6-6-5-6-8--|
|8--8--8--8--------6-6-6-6--3-3-3-4-4-4----3-4-4-4-3-4-6--|

0:21-0:28
|---------------------------------------------------------|
|---------------------------------------------------------|
|---------------------------------------------------------|
|------------8-8-8----------------------------------------|
|10-10-10-10-6-6-6-8-8-8-8--5-5-5-6-6-6----5-6-6-6-5-6-5--|
|8--8--8--8--------6-6-6-6--3-3-3-4-4-4----3-4-4-4-3-4-3--|

Verse(Keyboard/Piano)
0:29-0:54
|----8--------8----6--------6----4--------4----3----|
|---4-----------------------------------------------|
|--5---------3-------------1-------------5----------|x2 Don't play the very
|-5---------5-------------3-------------6-----------|last part the second
|3---------5-------------3-------------6------------|time.
|---------3-------------1-------------4-------------|

Verse(Guitar)
0:42-0:53
|-----------------------------------------------------------------------|
|-----------------------------------------------------------------------|
|8-7--------------------------------------------------------------------|
|x-x-5--5-5-5-5---5-5-5--5-5-5-5--5-5-5---------------------------------|
|6-5-x--3-3-3-3---3-3-3--3-3-3-3--3-3-3-5-5-5-5---5-5-5--5-5-5-5--5-5-5-|
|----3----------------------------------3-3-3-3---3-3-3--3-3-3-3--3-3-3-|

|--------------------------------|
|--------------------------------|
|--------------------------------|
|--------------------------------|
|3-3-3-3---3-3-3--3-3-3-3--3-3-3-|
|1-1-1-1---1-1-1--1-1-1-1--1-1-1-|

Chorus(Guitar)
0:53-
|---------------------------------------------------------------------------
|---------------------------------------------------------------------------
|---------------------------------------------------------------------------
|--8---8---8----8------5-5-5-5-5-5-5-5--8-8-8-8-8-8-8-8---------------------
|6-6-6-6-6-6--6-6-8-8--3-3-3-3-3-3-3-3--6-6-6-6-6-6-6-6-6-6-6-6-6-6-6-6-6-6-
|4---4---4----4---6-6-----------------------------------4-4-4-4-4-4-4-4-4-4-

         -1:11   1:12-
|------------|   |----------------------------------------------------------
|------------|   |----------------------------------------------------------
|------------|x2 |----------------------------------------------------------
|------------|   |5----5--5-5-8--8-8--8-8-8---------------5----5--5-5-8--8-8
|6-6-6-6-6-6-|   |3----3--3-3-6--6-6--6-6-6-6-6----6-6----3----3--3-3-6--6-6
|4-4-4-4-4-4-|   |--------------------------4-4----4-4----------------------

                                   -1:25
|--------------------------------------|
|--------------------------------------|
|--------------------------------------|
|--8-8-8-------------------------------|
|--6-6-6-6-6-6-6-6-6-6-6-6-6-6-6--/12\-|
|--------4-4-4-4-4-4-4-4-4-4-4-4--/12\-|

Bridge(Guitar)
1:27-
|---------------------------------------------------------|
|---------------------------------------------------------|
|---------------------------------------------------------|
|------------8-8-8----------------------------------------|
|10-10-10-10-6-6-6-8-8-8-8--5-5-5-6-6-6----5-6-6-6-5-6-8--|
|8--8--8--8--------6-6-6-6--3-3-3-4-4-4----3-4-4-4-3-4-6--|

|---------------------------------------------------------|
|---------------------------------------------------------|
|---------------------------------------------------------|
|------------8-8-8----------------------------------------|
|10-10-10-10-6-6-6-8-8-8-8--5-5-5-6-6-6----5-6-6-6-5-6-5--|
|8--8--8--8--------6-6-6-6--3-3-3-4-4-4----3-4-4-4-3-4-3--|

Break(Lead Guitar)
2:38-
|-------------------------------------------------------------------------|
|---4---4----4--------3---3---3-------------------------------------------|
|--5---5----5---5----5---5---5---5----------------------------------------|
|-5---5----5---5-5--5---5---5---5-5---------------------------------8---8-|
|3-----------------3----------------6-6-5-6--------6-6-5-6--------6-6-6-6-|
|-----------------------------------4-4-3-4--------4-4-3-4--------4---4---|

|---------------------------------------------------------------------------|
|---------------------------------------------------------------------------|
|---------------------------------------------------------------------------|
|--8----8-------------------------------------------------------------------|
|6-6--6-6--8--8-6-6-6-6----6-6-6--6--6-8-10-8-6-6-----------6-6-6--6--6-8-10|
|4----4----6--6-4-4-4-4----4-4-4--4--4-6-8-6-4-4--4-4-4-4---4-4-4--4--4-6-8-|

                                               -3:09
|--------------------------------------------------|
|--------------------------------------------------|
|--------------------------------------------------|
|---------8---8---8----8--------8---8---8----8-----|
|8-6-6--6-6-6-6-6-6--6-6-8-8--6-6-6-6-6-6--6-6-8-8-|
|6-4-4--4---4---4----4---6-6--4---4---4----4---6-6-|

Break(Acoustic Guitar)
|-----------------------------------------------------------------------|
|---4---4----4---------3---3---3--------6----4----3-------6----4---3----|
|--5---5----5---5-----5---5---5---5------5----5----5-------5----5---5---|
|-5---5----5---5-5---5---5---5---5-5------5----5----5-------5----5---5--|
|3------------------3----------------------3----3----3-------3----3---3-|
|-----------------------------------------------------------------------|

Outro(Keyboard/Piano)
|--------------------|
|----5-----4---------|
|----------------3-5-|
|--5-----5-----------|
|-3-----3------6-----|
|-------------4------|

Outro(Guitar)
|---------------------------------------------------------|
|---------------------------------------------------------|
|---------------------------------------------------------|
|------------8-8-8----------------------------------------|
|10-10-10-10-6-6-6-8-8-8-8--5-5-5-6-6-6----5-6-6-6-5-6-5--|
|8--8--8--8--------6-6-6-6--3-3-3-4-4-4----3-4-4-4-3-4-3--|

|---------------------------------------------------------|
|---------------------------------------------------------|
|---------------------------------------------------------|
|------------8-8-8----------------------------------------|
|10-10-10-10-6-6-6-8-8-8-8--5-5-5-6-6-6----5-6-6-6-5-6-8--|
|8--8--8--8--------6-6-6-6--3-3-3-4-4-4----3-4-4-4-3-4-6--|

|---------------------------------------------------------|
|---------------------------------------------------------|
|---------------------------------------------------------|
|------------8-8-8----------------------------------------|
|10-10-10-10-6-6-6-8-8-8-8--5-5-5-6-6-6----5-6-6-6-5-6-5--|
|8--8--8--8--------6-6-6-6--3-3-3-4-4-4----3-4-4-4-3-4-3--|

Song Structure:
Intro
Verse
Chorus
Bridge
Verse
Chorus
Break
Chorus
Outro





Comments


Popular H.I.M tabs & chords
For You 3 Bass Tabs
Poison Girl Bass Tabs
Razorblade Kiss Bass Tabs
Close To The Flame 2 Chords
Face Of God 1 Chords
In Joy And Sorrow 2 Chords
Right Here In My Arms Chords
Gone With The Sin Live Drum Tabs
Drawn And Quartered Tabs
Wicked Game 4 Tabs


Song lyrics



↑ Back to top | Tablatures and chords are parodies/interpretations of the original songs. You may use it for private study, scholarship, research or language learning purposes only
© 2014 AZChords.com Contact us | Privacy policy | DMCA | Add/correct tabs | Request tabs | Top 50 tabs