>
 >
Joy And Sorrow

Joy And Sorrow Guitar Tabs

H.I.M - Joy And Sorrow chords, tabs, tablatures, lyrics

Guitar lessons | Add/correct | Request | Top 50 tabs Artists:  A B C D E F G H I J K L M N O P Q R S T U V W X Y Z 0-9

Joy And Sorrow Guitar Tabs – H.I.M

CD, Sheet music, Poster

Do you like Joy And Sorrow? Share with your friends now
Tabs
|---------------------------|--------------0-----------|
|---------------3-----------|-----------------3-----3--|
|---------0--------0-----0--|--------0-----------0-----|
|------2-----2--------2-----|-----0-----0--------------|
|---3-----------------------|--2-----------------------|
|---------------------------|--------------------------|

    beim 2. mal Violaeinsatz
|--------------------------|---------------------------|
|--------------1-----------|--------------1------------|
|--------2--------2--------|--------2--------2---------|
|-----2-----2--------2-----|-----2-----2---------------|
|--0--------------------0--|--0-----------------0--2---|
|--------------------------|---------------------------|


|--------------------------|--------------0------------|
|--------------3-----------|-----------------3-----3---|
|--------0--------0-----0--|--------0-----------0------|
|-----2-----2--------2-----|-----0-----0---------------|
|--3-----------------------|--2------------------------|
|--------------------------|---------------------------|


|--------------1-----------|-----0---------------------|
|--------2--------3-----3--|-----0---------------------|
|-----2-----2--------2-----|-----1---------------------|
|--0-----------------------|-----2---------------------|
|--------------------------|-----2---------------------|let ring
|--------------------------|-----0---------------------|


|--------------------------|--------------0------------|
|--------------3-----------|-----------------3-----3---|
|--------0--------0-----0--|--------0-----------0------|
|-----2-----2--------2-----|-----0-----0---------------|
|--3-----------------------|--2------------------------|
|--------------------------|---------------------------|


|--------------------------|---------------------------|
|--------------------------|--------------0------------|
|--------------0-----------|--1--------------2---------|
|--------2--------2--------|-----2--------------2--2---|
|-----2-----2--------2--2--|--------2--2---------------|
|--0-----------------------|---------------------------|

|--------------------------|--------------0------------|
|--------------3-----------|-----------------3-----3---|
|--------0--------0-----0--|--------0-----------0------|
|-----2-----2--------2-----|-----0-----0---------------|
|--3-----------------------|--2------------------------|
|--------------------------|---------------------------|


|--------------------------|---------------------------|
|--------------------------|--------------0------------|
|--------------0-----------|--1--------------2---------|
|--------2--------2--------|-----2--------------2--2---|
|-----2-----2--------2--2--|--------2--2---------------|
|--0-----------------------|---------------------------|


|---------------------------|--------------0-----------|
|---------------3-----------|-----------------3-----3--|
|---------0--------0-----0--|--------0-----------0-----|
|------2-----2--------2-----|-----0-----0--------------|
|---3-----------------------|--2-----------------------|
|---------------------------|--------------------------|

|--------------------------|---------------------------|
|--------------1-----------|--------------1------------|
|--------2--------2--------|--------2--------2---------|
|-----2-----2--------2-----|-----2-----2---------------|
|--0--------------------0--|--0-----------------0--2---|
|--------------------------|---------------------------|

|---------------0----------|
|--------1------1----------|
|-----2---------2----------|
|--3------------3----------|
|--------------------------|
|--------------------------|


    Refrain 1,2

     Am 2 mal
|--0-0--0--0--0--0---|-0--0--0--0--0--0--|--3---3--3---3--3--3--|
|--1-1--1--1--1--1---|-1--1--1--1--1--1--|--3---3--3---3--3--3--|
|--2-2--2--2--2--2---|-0--0--0--0--0--0--|--0---0--0---0--0--0--|
|--2-2--2--2--2--2---|-2--2--2--2--2--2--|--0---0--0---0--0--0--|
|--0-0--0--0--0--0---|-3--3--3--3--3--3--|--2---2--2---2--2--2--|
|--------------------|-------------------|--3---3--3---3--3--3--|

     F 2 mal
|--1-1--1--1--1--1---|-0--0--0--0--0--0--|--3--3--3----3--3--3--|
|--1-1--1--1--1--1---|-1--1--1--1--1--1--|--3--3--3----3--3--3--|
|--2-2--2--2--2--2---|-0--0--0--0--0--0--|--0--0--0----0--0--0--|
|--3-3--3--3--3--3---|-2--2--2--2--2--2--|--0--0--0----0--0--0--|
|--3-3--3--3--3--3---|-3--3--3--3--3--3--|--2--2--2----2--2--2--|
|--1-1--1--1--1--1---|-------------------|--3--3--3----3--3--3--|

     Am 2 mal
|--0-0--0--0--0--0---|-0--0--0--0--0--0--|--3--3--3----3--3--3--|
|--1-1--1--1--1--1---|-1--1--1--1--1--1--|--3--3--3----3--3--3--|
|-2-2--2--2--2--2----|-0--0--0--0--0--0--|--0--0--0----0--0--0--|
|-2-2--2--2--2--2----|-2--2--2--2--2--2--|--0--0--0----0--0--0--|
|--0-0--0--0--0--0---|-3--3--3--3--3--3--|--2--2--2----2--2--2--|
|--------------------|-------------------|--3--3--3----3--3--3--|

      F 2 mal
|--1--1--1--1--1--1---|-0--0--0--0--0--0--|-3--3--3----3--3--3--|
|--1--1--1--1--1--1---|-1--1--1--1--1--1--|-3--3--3----3--3--3--|
|--2--2--2--2--2--2---|-0--0--0--0--0--0--|-0--0--0----0--0--0--|
|--3--3--3--3--3--3---|-2--2--2--2--2--2--|-0--0--0----0--0--0--|
|--3--3--3--3--3--3---|-3--3--3--3--3--3--|-2--2--2----2--2--2--|
|--1--1--1--1--1--1---|-------------------|-3--3--3----3--3--3--|


    Refrain 3
     Bm 2 mal
|---2----2--2----2--2--2---|--2----2--2----2--2--2--|
|---3----3--3----3--3--3---|--3----3--3----3--3--3--|
|---4----4--4----4--4--4---|--2----2--2----2--2--2--|
|---4----4--4----4--4--4---|--0----0--0----0--0--0--|
|---2----2--2----2--2--2---|------------------------|
|--------------------------|------------------------|

                          G 2 mal
|-0-0--0--0--0--0--|--3--3--3--3--3--3---|-2--2--2----2--2--2--|
|-2-2--2--2--2--2--|--0--0--0--0--0--0---|-3--3--3----3--3--3--|
|-2-2--2--2--2--2--|--0--0--0--0--0--0---|-2--2--2----2--2--2--|
|-2-2--2--2--2--2--|--0--0--0--0--0--0---|-0--0--0----0--0--0--|
|-0-0--0--0--0--0--|--2--2--2--2--2--2---|---------------------|
|------------------|--3--3--3--3--3--3---|---------------------|

                          Bm 2 mal
|-0-0--0--0--0--0--|--2--2--2--2--2--2---|-2--2--2----2--2--2--|
|-2-2--2--2--2--2--|--3--3--3--3--3--3---|-3--3--3----3--3--3--|
|-2-2--2--2--2--2--|--4--4--4--4--4--4---|-2--2--2----2--2--2--|
|-2-2--2--2--2--2--|--4--4--4--4--4--4---|-0--0--0----0--0--0--|
|-0-0--0--0--0--0--|--2--2--2--2--2--2---|---------------------|
|------------------|---------------------|---------------------|

                          G 2 mal
|-0-0--0--0--0--0--|--3--3--3--3--3--3---|-2--2--2----2--2--2--|
|-2-2--2--2--2--2--|--0--0--0--0--0--0---|-3--3--3----3--3--3--|
|-2-2--2--2--2--2--|--0--0--0--0--0--0---|-2--2--2----2--2--2--|
|-2-2--2--2--2--2--|--0--0--0--0--0--0---|-0--0--0----0--0--0--|
|-0-0--0--0--0--0--|--2--2--2--2--2--2---|---------------------|
|------------------|--3--3--3--3--3--3---|---------------------|

                          Bm 2 mal
|-0-0--0--0--0--0--|--2--2--2--2--2--2---|-2--2--2----2--2--2--|
|-2-2--2--2--2--2--|--3--3--3--3--3--3---|-3--3--3----3--3--3--|
|-2-2--2--2--2--2--|--4--4--4--4--4--4---|-2--2--2----2--2--2--|
|-2-2--2--2--2--2--|--4--4--4--4--4--4---|-0--0--0----0--0--0--|
|-0-0--0--0--0--0--|--2--2--2--2--2--2---|---------------------|
|------------------|---------------------|---------------------|

                          G 2 mal
|-0-0--0--0--0--0--|--3--3--3--3--3--3---|-2--2--2----2--2--2--|
|-2-2--2--2--2--2--|--0--0--0--0--0--0---|-3--3--3----3--3--3--|
|-2-2--2--2--2--2--|--0--0--0--0--0--0---|-2--2--2----2--2--2--|
|-2-2--2--2--2--2--|--0--0--0--0--0--0---|-0--0--0----0--0--0--|
|-0-0--0--0--0--0--|--2--2--2--2--2--2---|---------------------|
|------------------|--3--3--3--3--3--3---|---------------------|

                           Bm 2 mal
|-0-0--0--0--0--0--|--2--2--2--2--2--2---|-2--2--2----2--2--2--|
|-2-2--2--2--2--2--|--3--3--3--3--3--3---|-3--3--3----3--3--3--|
|-2-2--2--2--2--2--|--4--4--4--4--4--4---|-2--2--2----2--2--2--|
|-2-2--2--2--2--2--|--4--4--4--4--4--4---|-0--0--0----0--0--0--|
|-0-0--0--0--0--0--|--2--2--2--2--2--2---|---------------------|
|------------------|---------------------|---------------------|

                          G 2 mal
|-0-0-0--0--0--0--|---3--3--3--3--3--3---|-2--2--2----2--2--2--|
|-2-2-2--2--2--2--|---0--0--0--0--0--0---|-3--3--3----3--3--3--|
|-2-2-2--2--2--2--|---0--0--0--0--0--0---|-2--2--2----2--2--2--|
|-2-2-2--2--2--2--|---0--0--0--0--0--0---|-0--0--0----0--0--0--|
|-0-0-0--0--0--0--|---2--2--2--2--2--2---|---------------------|
|-----------------|---3--3--3--3--3--3---|---------------------|


|--0----0--0----0--0--0--|
|--2----2--2----2--2--2--|
|--2----2--2----2--2--2--|
|--2----2--2----2--2--2--|
|--0----0--0----0--0--0--|
|------------------------|

     Refrain 1,2
    (Electric Guitar)

|-------------|------------------|--------------------|
|-------------|------------------|--------------------|
|-------------|------------------|--------------------|
|-------------|------------------|--------------------|
|--7----------|------------------|--10----------------|
|--5----------|------------------|--8-----------------|

|---------------|-------------|-----------|--------------------|
|---------------|-------------|-----------|--------------------|
|---------------|-------------|-----------|--------------------|
|---------------|-------------|-----------|--------------------|
|--5------------|--3----------|-----------|--10----------------|
|--3------------|--1----------|-----------|--8-----------------|


|--------------------|-------------------|------------------|
|--------------------|-------------------|------------------|
|--------------------|-------------------|------------------|
|--------------------|-------------------|------------------|
|--5--------6--------|--7----------------|------------------|
|--3--------4--------|--5----------------|------------------|


|-----------|-------------------|--------|------------------|
|-----------|-------------------|--------|------------------|
|-----------|-------------------|--------|------------------|
|-----------|-------------------|--------|------------------|
|--10-------|--5----------------|--3-----|------------------|
|--8--------|--3----------------|--1-----|------------------|


|--------------------|-------------------|
|--------------------|-------------------|
|--------------------|-------------------|
|--------------------|-------------------|
|--10----------------|--5----------------|
|--8-----------------|--3----------------|



BRIDGE

                                             3x
|-----------------------|--------------------|----------------|
|-----------------------|--------------------|----------------|
|-----------------------|--------------------|----------------|
|------7----------------|--------------------|------7---------|
|------7----------------|--------------------|------7---------|
|------5----------------|--------------------|------5---------|


|------------|------------------------|-------------------------|
|------------|------------------------|-------------------------|
|------------|------------------------|-------------------------|
|------------|------7--7--7--7--7--7--|--7--7--7--7--7--7--7----|
|------------|------7--7--7--7--7--7--|--7--7--7--7--7--7--7----|
|------------|------5--5--5--5--5--5--|--5--5--5--5--5--5--5----|


    Refrain 3
(Electric Guitar)

|--------------------|------------------|--------------------|
|--------------------|------------------|--------------------|
|--------------------|------------------|--------------------|
|--------------------|------------------|--------------------|
|---9----------------|------------------|--12----------------|
|---7----------------|------------------|--10----------------|


|-------------|-------------|-------------|--------------------|
|-------------|-------------|-------------|--------------------|
|-------------|-------------|-------------|--------------------|
|-------------|-------------|-------------|--------------------|
|--7----------|--5----------|-------------|--12----------------|
|--5----------|--3----------|-------------|--10----------------|


|--------------------|--------------------|--------------------|
|--------------------|--------------------|--------------------|
|--------------------|--------------------|--------------------|
|--------------------|--------------------|--------------------|
|--7--------8--------|--9-----------------|--------------------|
|--5--------6--------|--7-----------------|--------------------|


|-------------|-------------|-------------|--------------------|
|-------------|-------------|-------------|--------------------|
|-------------|-------------|-------------|--------------------|
|-------------|-------------|-------------|--------------------|
|--12---------|--7----------|--5----------|--------------------|
|--10---------|--5----------|--3----------|--------------------|


|--------------------|--------------------|
|--------------------|--------------------|
|--------------------|--------------------|
|--------------------|--------------------|
|--12----------------|--7-----------------|
|--10----------------|--5-----------------|





Comments


Popular H.I.M tabs & chords
Sweet Pandemonium Bass Tabs
Dying Song 2 Chords
Play Dead Chords
Gone With The Sin Live Drum Tabs
Cyanide Sun Intro Tabs
Killing Loneliness 5 Tabs
Please Don't Let It Go Tabs
Razorblade Kiss 1 Tabs
Resurrection Tabs
The Sacrement Ukulele


Song lyrics



↑ Back to top | Tablatures and chords are parodies/interpretations of the original songs. You may use it for private study, scholarship, research or language learning purposes only
© 2014 AZChords.com Contact us | Privacy policy | DMCA | Add/correct tabs | Request tabs | Top 50 tabs