» » »

H.I.M, Ive Crossed Oceans Of Wine To Find You Tabs (ver.1)

Artists:  A B C D E F G H I J K L M N O P Q R S T U V W X Y Z # 

Ive Crossed Oceans Of Wine To Find You Tabs (ver.1)

H.I.M Tabs
 Rating:
4/5 (4 votes)
Ive Crossed Oceans Of Wine To Find You lessons Tabs too difficult? Try these video lessons and learn fast
                Tuning: Standard (EADGBe)


 Verse     Riff 1:
E|------------------------------------|
B|-5-----5----------------------------|
G|-6--6--6-----6--6-------------------|
D|-6--6--6-----6--6-------------------|
A|-4-----4-----4--4-------------------|
E|------------------------------------|

Play this riff six times

  Riff 2:
E|----0-0----0-0------0-0--0-0--5--5-5--5--5-5---3--3-3---3--3-3-------|
B|-0--0-0-0--0-0--0---0-0--0-0--5--5-5--5--5-5---3--3-3---3--3-3-------|
G|-1--1---1--1----1---1----1----5--5-5--5--5-5---4--4-4---4--4-4-------|
D|-2--2---2--2----2---2----2----7--7-7--7--7-7---5--5-5---5--5-5-------|
A|-2--2---2--2----2---2----2----7-------7--------5--------5------------|
E|-0--0---0--0----0---0----0----5-------5--------3--------3------------|

E|---4-----------|
B|---5-----------|
G|---6-----------|
D|---6-----------|
A|---4-----------|
E|---------------|

  Riff 3:
E|-4-4-4/5--4-2-4-----4-4-4/5--4-2-0------0------0----0--2--4-4/5-4--4-4/5--|
B|--------------------------------------5------5----5-----------------------|
G|--------------------------------------------------------------------------|
D|--------------------------------------------------------------------------|
A|--------------------------------------------------------------------------|
E|--------------------------------------------------------------------------|

E|-4-4-4/5--4-2-4--4-4-4/5--2-4-0------0---0--4-4/7--4-4/7---4-5/12--4-5/12-|
B|-----------------------------------5---5----------------------------------|
G|--------------------------------------------------------------------------|
D|--------------------------------------------------------------------------|
A|--------------------------------------------------------------------------|
E|--------------------------------------------------------------------------|

E|4-5/11--4-5/11----|
B|------------------|
G|------------------|
D|------------------|
A|------------------|
E|------------------|
 then play riff 1 until end and play this chord

E|----4--------------|
B|----4--------------|
G|----5--------------|
D|----6--------------|
A|----6--------------|
E|----4--------------|
            
Submit corrections

comments powered by Disqus
↑ Back to top | H.I.M Tabs for Ive Crossed Oceans Of Wine To Find You. Lyrics for acoustic guitar and electric guitar. Tablatures and chords are parodies/interpretations of the original songs. You may use it for private study, scholarship, research or language learning purposes only