» » »

It's All Tears Tabs (ver.5)

Artists:  A B C D E F G H I J K L M N O P Q R S T U V W X Y Z # 

It's All Tears Tabs (ver.5)

H.I.M
Rating:
0/5 (0 votes)

Tabs too difficult? Try these video lessons and learn fast.
                (1)
this is my frist tab - sweet
great song by HIM :)!
it goes kinda like this...

DROP D tuning
~ = vibrato
> = pick slide
/ = slide up


Intro 1
(clean)
E|-------------------------------------|
B|-------------------------------------|
G|-------------------------------------|
D|-10-9-7-9-9-5-7-5-4-5-5-5-7-4-2-0-2~-| x 2
A|-------------------------------------|
D|-------------------------------------|

E|-------------------------------------------|
B|-13-12-10-12-12-8-10-8-7-8-8-8-10-7-5-3-5~-|
G|-------------------------------------------|
D|-------------------------------------------| x 2
A|-------------------------------------------|
D|-------------------------------------------|

Intro 2 (Chorus also)
(distorted)
E|-----------|
B|-----------|
G|-7--10--5--|
D|-7--10--5->|
A|-5---8--3->|
D|---------->| the chorus can have many differnt kinds of strumming patterns
so you make one up I think they all sound pretty good. Then go crazy on that pick slide 
the verse cause it sounds awwsome... if u do it right!

Verse 1
(distorted)
E|-----------------------------------------------------------------|
B|-----------------------------------------------------------------|
G|-----------------------------------------------------------------|
D|-0-0-0-0-0-0-0-0-0-0-0-0-0-0-0-0-3-3-3-3-3-3-3-3-5-5-5-5-5-5-5-5-|
A|-0-0-0-0-0-0-0-0-0-0-0-0-0-0-0-0-3-3-3-3-3-3-3-3-5-5-5-5-5-5-5-5-|
D|-0-0-0-0-0-0-0-0-0-0-0-0-0-0-0-0-3-3-3-3-3-3-3-3-5-5-5-5-5-5-5-5-|
PM   . . . . . . . . . . . . . . .   . . . . . . .   . . . . . . .

Verse 2
(distorted)
E|---------------------------------------------------------------------|
B|---------------------------------------------------------------------|
G|-5/7-7-7-7-7-7-5/7-7-7-7-7-7-10-10-10-10-10-10-10-10-5-5-5-5-5-5-5-5-|
D|-5/5-5-5-5-5-5-5/5-5-5-5-5-5-10-10-10-10-10-10-10-10-5-5-5-5-5-5-5-5-|
A|-3/5-5-5-5-5-5-3/5-5-5-5-5-5--8--8--8--8--8--8--8--8-3-3-3-3-3-3-3-3-|
D|---------------------------------------------------------------------|

E|-----------------------------------|
B|-----------------------------------|
G|-5/7-7-7-7-7-7-5/7-7-7-7-7-7-10~5~-|
D|-5/5-5-5-5-5-5-5/5-5-5-5-5-5-10~5~-|
A|-3/5-5-5-5-5-5-3/5-5-5-5-5-5--8~3~-|
D|-----------------------------------|

Bridge
|-----------|
|-----------|
|-----------|
|-3/5-5-----|
|-3/5-5...--|
|-3/5-5-----|
PM    .

sorry didnt really feel like typing out all the muted notes there
but if you listen its pretty darn easy to play

the song is mostly in order above... but I guess it still could be hard to understand so 
below...

INTRO (1)(2)
CHORUS
VERSE1
VERSE2
BRIDGE
CHORUS
            
Tabs too difficult? Try these video lessons and learn fast.


comments powered by Disqus
↑ Back to top | Tablatures and chords are parodies/interpretations of the original songs. You may use it for private study, scholarship, research or language learning purposes only