>
 >
In Venere Veritas

In Venere Veritas Guitar Tabs

H.I.M - In Venere Veritas chords, tabs, tablatures, lyrics

Guitar lessons | Add/correct | Request | Top 50 tabs Artists:  A B C D E F G H I J K L M N O P Q R S T U V W X Y Z 0-9

In Venere Veritas Guitar Tabs – H.I.M

CD, Sheet music, Poster

Do you like In Venere Veritas? Share with your friends now
ChordsChords v2TabsUkulele


[Section/Instrument/Time] - Denoted by square brackets.
{Effects} - Denoted by braces.

The rests and spacings are by no means meant to be 100% in time.
However they are good enough for you to relate it to the song.
----------------------------------------------------------------

[Intro]
[0:04 - 0:17]

e|---------------------------------------------------------------|
B|---------------------------------------------------------------|
G|---------------------------------------------------------------|
D|--3--3--3-5-6-10--1010-10-8-10-11--1111-11-10-6-8--8-8---------|
A|--3--3--3-5-6-10--1010-10-8-10-11--1111-11-10-6-8--8-8---------|
E|--1--1--1-3-4-8---8-8--8--6-8--9---9-9--9--8--4-6--6-6-3b(4)r--|

e|----------------------------------------------------------|
B|----------------------------------------------------------|
G|----------------------------------------------------------|
D|--3--3--3-5-6-10--1010-10-8-10-11--1111-11-10-6-8~~-------|
A|--3--3--3-5-6-10--1010-10-8-10-11--1111-11-10-6-8~~~b(9)--|
E|--1--1--1-3-4-8---8-8--8--6-8--9---9-9--9--8--4-6~~~b(7)--|


[Verse 1]
[0:17 - 0:26] {Chorus}      [0:27 - 0:28]

e|-------------|            e|------------|
B|-------------|            B|------------|
G|----5--------|            G|------------|
D|--3----6~~---|            D|--8--6-8-6--|
A|-------------|            A|--6--4-6-6--|
E|-------------|            E|--6--4-6-4--|

[0:28 - 0:34] {Chorus}      [0:35 - 0:37] {Chorus}

e|-------------|            e|----------------|
B|-------------|            B|-----------4~---|
G|----5--------|            G|----5-----------|
D|--3----6~~---|            D|--3----6~-------|
A|-------------|            A|----------------|
E|-------------|            E|----------------|

[0:38 - 0:40]

e|-------------------|
B|-------------------|
G|-------------------|
D|--8--8-8-8-8--8-8--|
A|--6--6-6-6-6--6-6--|
E|--6--6-6-6-6--6-6--|


[Chorus 1]
[0:42 - 1:14]

e|---------------------------------------------------------------------------|
B|---------------------------------------------------------------------------|
G|---------------------------------------------------------------------------|
D|--6--6-6-6--6-6-------------------------------8--8-8--8-8-10-1010----------|
A|--4--4-4-6--6-6--------8--6-8--10--8--6--3----6--6-6--6-6-8--8-8------6-8--|
E|--4--4-4-4--4-4--6-8~--6--4-6--8---6--4--1----6--6-6--6-6-8--8-8--6-8------|

e|------------------------------------------------------------------------|
B|------------------------------------------------------------------------|
G|-(8)----(12)-----13--13--13--13--12--12--12--12-------------------------|
D|--x-(x8)-x--(x8)---11--11--11--11--11--11--11--11-----------------------|
A|--6------10----------------------------------------8--6-8--10--8--6--3--|
E|---------------------------------------------------6--4-6--8---6--4--1--|

e|-------------------------------------------------------------------------|
B|-------------------------------------------------------------------------|
G|-------------------------------------------------------------------------|
D|--8--8-8--8-8-10-1010---------8--8-8--8-8-8-6--6-6--6-6-6-6--6-6--6-6-6--|
A|--6--6-6--6-6-8--8-8------6-8-6--6-6--6-6-6-4--4-4--4-4-4-6--6-6--6-6-6--|
E|--6--6-6--6-6-8--8-8--6-8-----6--6-6--6-6-6-4--4-4--4-4-4-4--4-4--4-4-4--|

e|----------------------------------------------|
B|----------------------------------------------|
G|----------------------------------------------|
D|--8--8-8--8-8-8-6--6-6--6-6-6-6-6-6-6---------|
A|--6--6-6--6-6-6-4--4-4--4-4-4-6-6-6-6---------|
E|--6--6-6--6-6-6-4--4-4--4-4-4-4-4-4-4-3b(4)r--|
                                . . . .


[Post Chorus 1]
[1:17 - 1:27]

I've included the last bar's octave up part as ghost notes FYI.

e|-----------------------------------------------------------------|
B|-----------------------------------------------------------------|
G|-----------------------------------------------------------------|
D|--\11--1111-11-10-6-8--8-8---------------------------------------|
A|--\11--1111-11-10-6-8--8-8---------------------------------------|
E|--\9---9-9--9--8--4-6--6-6-3b(4)r--------------------------------|

e|------------------------------------------------------------|
B|------------------------------------------------------------|
G|-----------------------------------------------(15-131513)--|
D|--3--3--3-5-6-10--1010-10-8-10-11--1111-11-10-6-8--6-8-6----|
A|--3--3--3-5-6-10--1010-10-8-10-11--1111-11-10-6-8--6-8-6----|
E|--1--1--1-3-4-8---8-8--8--6-8--9---9-9--9--8--4-6--4-6-4----|


[Verse 2]
[1:27 - 1:33] {Chorus}      [1:34 - 1:36] {Chorus}

e|-------------|            e|----------------|
B|-------------|            B|-----------4~---|
G|----5--------|            G|----5-----------|
D|--3----6~~---|            D|--3----6~-------|
A|-------------|            A|----------------|
E|-------------|            E|----------------|

[1:37 - 1:42]

e|-----------------------------|
B|-----------------------------|
G|-----------------------------|
D|--8----8-8---\\--8----8-8-\--|
A|--6----6-6---\\--6----6-6-\--|
E|--6----6-6---\\--6----6-6-\--|


[Chorus 2]
[1:44 - 2:16]

e|---------------------------------------------------------------------------|
B|---------------------------------------------------------------------------|
G|---------------------------------------------------------------------------|
D|--6--6-6-6--6-6-------------------------------8--8-8--8-8-10-1010----------|
A|--4--4-4-6--6-6--------8--6-8--10--8--6--3----6--6-6--6-6-8--8-8------6-8--|
E|--4--4-4-4--4-4--6-8~--6--4-6--8---6--4--1----6--6-6--6-6-8--8-8--6-8------|

e|------------------------------------------------------------------------|
B|------------------------------------------------------------------------|
G|-(8)----(12)-----13--13--13--13--12--12--12--12-------------------------|
D|--x-(x8)-x--(x8)---11--11--11--11--11--11--11--11-----------------------|
A|--6------10----------------------------------------8--6-8--10--8--6--3--|
E|---------------------------------------------------6--4-6--8---6--4--1--|

e|-------------------------------------------------------------------------|
B|-------------------------------------------------------------------------|
G|-------------------------------------------------------------------------|
D|--8--8-8--8-8-10-1010---------8--8-8--8-8-8-6--6-6--6-6-6-6--6-6--6-6-6--|
A|--6--6-6--6-6-8--8-8------6-8-6--6-6--6-6-6-4--4-4--4-4-4-6--6-6--6-6-6--|
E|--6--6-6--6-6-8--8-8--6-8-----6--6-6--6-6-6-4--4-4--4-4-4-4--4-4--4-4-4--|

e|---------------------|
B|---------------------|
G|---------------------|
D|--8-----6-----6------|
A|--6(x8)-4(x8)-6(x7)--|
E|--6-----4-----4------|


[Solo] [Lead] {Lots Of Fuzz & Octave & Wah}
[2:16 - 2:33]

e|-----------------------------------------------------------------------------|
B|----------------------------------------9fbr-8~------------------------------|
G|--10~~-10~~-8~~--------8~------------8~----------10~----10-12-13-10-12~------|
D|-------------------10~----8~~----10~-----------------------------------------|
A|-----------------------------------------------------------------------------|
E|-----------------------------------------------------------------------------|
                                         {---Pinch---}

e|------11~-----------------------------------------|
B|--------------------------------------------------|
G|--10~~------8~~--------8~------------8~-----------|
D|-------------------10~----8~-----10~----8fbr-6----|
A|--------------------------------------------------|
E|--------------------------------------------------|


[Solo] [Rhythm]
[2:16 - 2:33]

e|---------------------------------------------------------|
B|---------------------------------------------------------|
G|---------------------------------------------------------|
D|--3--3-------6--6--8----8--8--8----3---------------------|
A|--3--3--6----6--6--6----8--8--6----3------8-10-11-8-10~--|
E|--1--1--3----4--4--6----6--6--6----1---------------------|

e|-----------------------------------|
B|-----------------------------------|
G|-----------------------------------|
D|--3--3-3-----6--6-68----8--8-88----|
A|--3--3-36----6--6-66----8--8-86----|
E|--1--1-13----4--4-46----6--6-66----|
       . .        . .        . .


[Chorus 3]
[2:42 - 3:19]

e|---------------------------------------------------------------------------|
B|---------------------------------------------------------------------------|
G|---------------------------------------------------------------------------|
D|--6--6-6-6--6-6-------------------------------8--8-8--8-8-10-1010----------|
A|--4--4-4-6--6-6--------8--6-8--10--8--6--3----6--6-6--6-6-8--8-8------6-8--|
E|--4--4-4-4--4-4--6-8~--6--4-6--8---6--4--1----6--6-6--6-6-8--8-8--6-8------|

e|------------------------------------------------------------------------|
B|------------------------------------------------------------------------|
G|-(8)----(12)-----13--13--13--13--12--12--12--12-------------------------|
D|--x-(x8)-x--(x8)---11--11--11--11--11--11--11--11-----------------------|
A|--6------10----------------------------------------8--6-8--10--8--6--3--|
E|---------------------------------------------------6--4-6--8---6--4--1--|

e|-------------------------------------------------------------------------|
B|-------------------------------------------------------------------------|
G|-------------------------------------------------------------------------|
D|--8--8-8--8-8-10-1010---------8--8-8--8-8-8-6--6-6--6-6-6-6--6-6--6-6-6--|
A|--6--6-6--6-6-8--8-8------6-8-6--6-6--6-6-6-4--4-4--4-4-4-6--6-6--6-6-6--|
E|--6--6-6--6-6-8--8-8--6-8-----6--6-6--6-6-6-4--4-4--4-4-4-4--4-4--4-4-4--|

e|------------------------------------------------|
B|------------------------------------------------|
G|------------------------------------------------|
D|--8-----6-----6-----8-----6-----6-6-6-6---------|
A|--6(x8)-4(x8)-6(x8)-6(x8)-4(x8)-6-6-6-6---------|
E|--6-----4-----4-----6-----4-----4-4-4-4-3b(4)r--|
                                  . . . .


[Outro]
[3:19 - 3:33]

e|--------------------------------------------------|
B|--------------------------------------------------|
G|--------------------------------------------------|
D|--3-----10-----\\-11--1111-11-10-6-8--8-8---------|
A|--3(x8)-10(x4)-\\-11--1111-11-10-6-8--8-8---------|
E|--1-----8------\\-9---9-9--9--8--4-6--6-6-3b(4)r--|

e|-------------------------------------------------------------------|
B|-------------------------------------------------------------------|
G|-------------------------------------------------------------------|
D|--3--3--3-5-6-10--1010-10-8-10-11--1111-11-10-6-8--8-8--------3-3--|
A|--3--3--3-5-6-10--1010-10-8-10-11--1111-11-10-6-8--8-8--------3-3--|
E|--1--1--1-3-4-8---8-8--8--6-8--9---9-9--9--8--4-6--6-6-3b(4)r-1-1--|





Comments


Popular H.I.M tabs & chords
Cage Chords
In Venera Veritas Chords
Rip Out The Wings Of A Butterfly Chords
Close To The Flame Drum Tabs
Beautiful 1 Tabs
Our Diabolical Rapture Tabs
Sigillium Diabolli Tabs
The Sacrament 4 Tabs
The Sacrement 1 Tabs
Dark Light Ukulele


Song lyrics



↑ Back to top | Tablatures and chords are parodies/interpretations of the original songs. You may use it for private study, scholarship, research or language learning purposes only
© 2014 AZChords.com Contact us | Privacy policy | DMCA | Add/correct tabs | Request tabs | Top 50 tabs