>
 >
In The Arms Of Rain

In The Arms Of Rain Guitar Tabs

H.I.M - In The Arms Of Rain chords, tabs, tablatures, lyrics

Guitar lessons | Add/correct | Request | Top 50 tabs Artists:  A B C D E F G H I J K L M N O P Q R S T U V W X Y Z 0-9

In The Arms Of Rain Guitar Tabs – H.I.M

CD, Sheet music, Poster

Do you like In The Arms Of Rain? Share with your friends now
ChordsTabsUkulele
-----------------------------------------------------------------------------
                             In the Arms of Rain - HIM
-----------------------------------------------------------------------------





Tuning: Standard E ( E A D G B E )



  Intro. ( Main Riff, Chorus)

   A5          C5         E5          G5
e|-----------------------------------------------------|
B|-----------------------------------------------------|
G|--2-----------5--------------------------------------|
D|--2-----------5----------2-----------5---------------|
A|--0-----------3----------2-----------5---------------|
E|-------------------------0-----------3---------------|

e|----------------------------------------------------|
B|----------------------------------------------------|
G|--2-----------5-------------------------------------|
D|--2-----------5----------2------2--2----------------|
A|--0-----------3----------2------2--2----------------|
E|-------------------------0------0--0----------------|




  Verse

" Once again, we've found ourselves to be lost..."


     Cadd9         G               D          Dsus2
e|-----------------------------------2-----0----------------|
B|--------3------------------------3---3-----3---3----------|
G|------0---0----------0---------2-------2-----2---2--------|
D|----2--------------0---0-----0---------------------0------|
A|--3--------------2----------------------------------------|
E|---------------3------------------------------------------|

                                         Dsus4
e|-----------------------------------2-----3-----2----------|
B|--------3------------------------3---3-----3-----3--------|
G|------0---0----------0---------2-------2-----2-----2------|
D|----2--------------0---0-----0----------------------------|
A|--3--------------2----------------------------------------|
E|---------------3------------------------------------------|



" Aren't you happy to see me crawl, serpentine towards the sun to you"

e|-------------------------------------------------------|
B|-------------------------------------------------------|
G|-------------------------------------------------------|
D|--5-5-5-5-5-5-5-5--5-5-5-5-5-5-5-5--7~---5-5---2-------|
A|--3-3-3-3-3-3-3-3--5-5-5-5-5-5-5-5--5~---3-2---2-------|
E|--3-3-3-3-3-3-3-3--3-3-3-3-3-3-3-3--5~---3-2---0-------|



  
  Chorus

  Repeat Main Riff x2 ( A5, C5, E5, G5 ) then play,



" Baby it's the Hail Maries for the secret you get from me..."

 ( not 100% sure on this, its hard to hear )

e|--10------10------10------8-----8-----8-----------|
B|-----10------10------10-----8-----8-----8---------|
G|--------9-------9-------------7-----7-------------|  x 2
D|--------------------------------------------------|
A|--------------------------------------------------|
E|--------------------------------------------------|


" in the arms of rain we are free"

e|---------------------------------------|
B|---------------------------------------|
G|--2-----------5------------------------|
D|--2-----------5------------2----2--2---|
A|--0-----------3------------2----2--2---|
E|---------------------------0----0--0---|



 
  
  Verse 2


e|------------------------------2-2--3-3--2-2---------|
B|--------3---------------------3-3--3-3--3-3---------|
G|------0---0----------0--------2-2--2-2--2-2---------|
D|----2--------------0---0------0-0--0-0--0-0---------|
A|--3--------------2----------------------------------|
E|---------------3------------------------------------|


e|-------------------------------------2-2--3-3--2-2-------|
B|-------------------------------------3-3--3-3--3-3-------|
G|--5-5-5-5-5-5-5-5--------------------2-2--2-2--2-2-------|
D|--5-5-5-5-5-5-5-5--5-5-5-5-5-5-5-5---0-0--0-0--0-0-------|
A|--3-3-3-3-3-3-3-3--5-5-5-5-5-5-5-5-----------------------|
E|-------------------3-3-3-3-3-3-3-3-----------------------|
    . . . . . . . .  . . . . . . . . 


e|-------------------------------------------------------|
B|-------------------------------------------------------|
G|-------------------------------------------------------|
D|--5-5-5-5-5-5-5-5--5-5-5-5-5-5-5-5--7~---5-5---2-------|
A|--3-3-3-3-3-3-3-3--5-5-5-5-5-5-5-5--5~---3-2---2-------|
E|--3-3-3-3-3-3-3-3--3-3-3-3-3-3-3-3--5~---3-2---0-------|



  
   Repeat Entire Chorus




  Bridge ( Clean )


" Ave Maria we try. Ave Maria we cry..."

e|--------------------------------------|
B|--8------8-7\5------------------------|
G|----7---------------------------------|   x 3
D|--------------------------------------|
A|--------------------------------------|
E|--------------------------------------|

e|-------------------------------------|
B|-------------------------------------|
G|-------------------------------------|
D|--2-2--2*--2-2--2*---2~----pick------|
A|--2-2------2-2-------2~----slide-----|
E|--0-0------0-0-------0~--------------|
    . .      . .



  Chorus 2 (variation)

e|---------------------------------------------------|
B|---------------------------------------------------|
G|--2-2-2-2-2-2-2-2--5-5-5-5-5-5-5-5-----------------|
D|--2-2-2-2-2-2-2-2--5-5-5-5-5-5-5-5--2~-------5~----|
A|--0-0-0-0-0-0-0-0--3-3-3-3-3-3-3-3--2~-------5~----|
E|------------------------------------0~-------3~----|


  Now Repeat the rest of the chorus, however there are more variations 
  as usual...




 Outro


" It's the end of the road. Hold me."

   G5                E5    C5 B5 A5          
e|----------------------------------|
B|----------------------------------|
G|----------------------------------|
D|--5-----------------2-----5--4-2--|
A|--5-----------------2-----3--2-0--|
E|--3-----------------0-------------|

e|------------------------------------|
B|------------------------------------|
G|------------------------------------|
D|--5-----------------2-----5---7-----|
A|--5-----------------2-----3---5-----|
E|--3-----------------0-----3---5-----|

e|-----------------------------------------|
B|-----------------------------------------|
G|-----------------------------------------|
D|--5-----------------2-----5---7----2~----|
A|--5-----------------2-----3---5----2~----|
E|--3-----------------0-----3---5----0~----|




| /   slide up
| \   slide down
| h   hammer-on
| p   pull-off
| *   harmonic





Comments


Popular H.I.M tabs & chords
Heartache Every Moment 2 Bass Tabs
Pretending Bass Tabs
Wicked Game Live Bass Tabs
Bury Me Deep Inside Your Heart Chords
Stigmata Diaboli Drum Tabs
Close To The Flame 2 Tabs
Endless Dark 1 Tabs
Funeral Of Hearts 2 Tabs
Its All Tears Unplugged (Solo) Tabs
Loves Requiem Tabs


Song lyrics



↑ Back to top | Tablatures and chords are parodies/interpretations of the original songs. You may use it for private study, scholarship, research or language learning purposes only
© 2014 AZChords.com Contact us | Privacy policy | DMCA | Add/correct tabs | Request tabs | Top 50 tabs