» » »

H.I.M, In Love And Lonely Tabs (ver.1)

Artists:  A B C D E F G H I J K L M N O P Q R S T U V W X Y Z # 

In Love And Lonely Tabs (ver.1)

H.I.M Tabs
Rating:
0/5 (0 votes)
In Love And Lonely lessons Tabs too difficult? Try these video lessons and learn fast
                Sorry, but i only have the intro and main riff throughout the song tabbed out for now.

Intro:
e|--------------------------------------------------------
b|--------------------------------------------------------
g|--------------------------------------------------------
d|----11h13-13-13-13-------11h13-13-13-13-----------------  many times
a|-------------------11h13--------------------------------
E|--------------------------------------------------------


Verse: sounds something like this but not too sure
e|--------------------------------------------------------
b|--------------------------------------------------------
g|--------------------------------------------------------
d|--------------------------------------------------------  
a|--4-4-4-4-4-4-4-4-4-4-4-4-4-6-6-6-6-4-4-4-4-4-4-4-------
E|--------------------------------------------------------


This part is like the intro, i think the bass plays it but it goes:


e|--------------------------------------------------------
b|--------------------------------------------------------
g|--------------------------------------------------------
d|--------------------------------------------------------  
a|--4h6-6-6-6-----4h6-6-6-6-------------------------------
E|------------4h6-----------------------------------------


Sorry, if its not that good for now, but i will try to tab the rest later:
Thanks
            

comments powered by Disqus
↑ Back to top | H.I.M Tabs for In Love And Lonely. Lyrics for acoustic guitar and electric guitar. Tablatures and chords are parodies/interpretations of the original songs. You may use it for private study, scholarship, research or language learning purposes only