» » »

H.I.M, Don Let It Go Bass tabs (ver.1)

Artists:  A B C D E F G H I J K L M N O P Q R S T U V W X Y Z # 

Don Let It Go Bass tabs (ver.1)

H.I.M Tabs
 Rating:
4/5 (4 votes)
Don	 Let It Go lessons Tabs too difficult? Try these video lessons and learn fast
1
                Don`t Let It Go                                 


                                                                             HIM



                                                          
G||----|----|----|----|----------------------------------|
D||----|----|----|----|----------------------------------|
A||----|----|----|----|----------------------------------|
E||----|----|----|----|--0-0-0-0-0-0-0-0-3-3-3-3-5-7-5-3-|


                                                                      
----------------------------------|----------------------------------|
----------------------------------|----------------------------------|
----------------------------------|----------------------------------|
--5-5-5-5-5-5-5-5-5-5-5-5-5-5-5-5-|--8-8-8-8-8-8-8-8-3-3-3-3-5-7-5-3-|


                                                                      
----------------------------------|----------------------------------|
----------------------------------|----------------------------------|
--0-0-0-0-0-0-0-0-5-5-5-5-5-5-5-5-|----------------------------------|
----------------------------------|--0-0-0-0-0-0-0-0-3-3-3-3-5-7-5-3-|


                                                                      
----------------------------------|----------------------------------|
----------------------------------|----------------------------------|
----------------------------------|----------------------------------|
--5-5-5-5-5-5-5-5-5-5-5-5-5-5-5-5-|--8-8-8-8-8-8-8-8-3-3-3-3-5-7-5-3-|


                                                                      
----------------------------------|----------------------------------|
----------------------------------|----------------------------------|
--0-0-0-0-0-0-0-0-5-5-5-5-5-5-5-5-|----------------------------------|
----------------------------------|--0-0-0-0-0-0-0-0-3-3-3-3-3-3-3-3-|


                                                                      
----------------------------------|----------------------------------|
--0-0-0-0-0-0-0-0-----------------|----------------------------------|
------------------0-0-0-0-0-0-0-0-|--3-3-3-3-3-3-3-3-----------------|
----------------------------------|------------------3-3-3-3-3-3-3-3-|


                                                                      
----------------------------------|----------------------------------|
--0-0-0-0-0-0-0-0-0-0-0-0-0-0-0-0-|----------------------------------|
----------------------------------|----------------------------------|
----------------------------------|--0-0-0-0-0-0-0-0-3-3-3-3-3-3-3-3-|


                                                                      
----------------------------------|----------------------------------|
--0-0-0-0-0-0-0-0-----------------|----------------------------------|
------------------0-0-0-0-0-0-0-0-|--3-3-3-3-3-3-3-3-----------------|
----------------------------------|------------------3-3-3-3-3-3-3-3-|


                                                                      
----------------------------------|----------------------------------|
--0-0-0-0-0-0-0-0-0-0-0-0-0-0-0-0-|----------------------------------|
----------------------------------|----------------------------------|
----------------------------------|--0-0-0-0-0-0-0-0-3-3-3-3-5-7-5-3-|


                                                                      
----------------------------------|----------------------------------|
----------------------------------|----------------------------------|
----------------------------------|----------------------------------|
--5-5-5-5-5-5-5-5-5-5-5-5-5-5-5-5-|--8-8-8-8-8-8-8-8-3-3-3-3-5-7-5-3-|


                                                                      
----------------------------------|----------------------------------|
----------------------------------|----------------------------------|
--0-0-0-0-0-0-0-0-5-5-5-5-5-5-5-5-|----------------------------------|
----------------------------------|--0-0-0-0-0-0-0-0-3-3-3-3-5-7-5-3-|


                                                                      
----------------------------------|----------------------------------|
----------------------------------|----------------------------------|
----------------------------------|----------------------------------|
--5-5-5-5-5-5-5-5-5-5-5-5-5-5-5-5-|--8-8-8-8-8-8-8-8-3-3-3-3-5-7-5-3-|


                                                                      
----------------------------------|----------------------------------|
----------------------------------|----------------------------------|
--0-0-0-0-0-0-0-0-5-5-5-5-5-5-5-5-|----------------------------------|
----------------------------------|--0-0-0-0-0-0-0-0-3-3-3-3-3-3-3-3-|


                                                                      
----------------------------------|----------------------------------|
--0-0-0-0-0-0-0-0-----------------|----------------------------------|
------------------0-0-0-0-0-0-0-0-|--3-3-3-3-3-3-3-3-----------------|
----------------------------------|------------------3-3-3-3-3-3-3-3-|


                                                                      
----------------------------------|----------------------------------|
--0-0-0-0-0-0-0-0-0-0-0-0-0-0-0-0-|----------------------------------|
----------------------------------|----------------------------------|
----------------------------------|--0-0-0-0-0-0-0-0-3-3-3-3-3-3-3-3-|


                                                                      
----------------------------------|----------------------------------|
--0-0-0-0-0-0-0-0-----------------|----------------------------------|
------------------0-0-0-0-0-0-0-0-|--3-3-3-3-3-3-3-3-----------------|
----------------------------------|------------------3-3-3-3-3-3-3-3-|


                                                                      
----------------------------------|----------------------------------|
--0-0-0-0-0-0-0-0-0-0-0-0-0-0-0-0-|----------------------------------|
----------------------------------|----------------------------------|
----------------------------------|--0-0-0-0-0-0-0-0-3-3-3-3-5-7-5-3-|


                                                                      
----------------------------------|----------------------------------|
----------------------------------|----------------------------------|
----------------------------------|----------------------------------|
--5-5-5-5-5-5-5-5-5-5-5-5-5-5-5-5-|--8-8-8-8-8-8-8-8-3-3-3-3-5-7-5-3-|


                                                                      
----------------------------------|----------------------------------|
----------------------------------|----------------------------------|
--0-0-0-0-0-0-0-0-5-5-5-5-5-5-5-5-|----------------------------------|
----------------------------------|--0-0-0-0-0-0-0-0-3-3-3-3-5-7-5-3-|


                                                                      
----------------------------------|----------------------------------|
----------------------------------|----------------------------------|
----------------------------------|----------------------------------|
--5-5-5-5-5-5-5-5-5-5-5-5-5-5-5-5-|--8-8-8-8-8-8-8-8-3-3-3-3-5-7-5-3-|


                                                                      
----------------------------------|----------------------------------|
----------------------------------|----------------------------------|
--0-0-0-0-0-0-0-0-5-5-5-5-5-5-5-5-|----------------------------------|
----------------------------------|--0-0-0-0-0-0-0-0-3-3-3-3-3-3-3-3-|


                                                                      
----------------------------------|----------------------------------|
--0-0-0-0-0-0-0-0-----------------|----------------------------------|
------------------0-0-0-0-0-0-0-0-|--3-3-3-3-3-3-3-3-----------------|
----------------------------------|------------------3-3-3-3-3-3-3-3-|


                                                                      
----------------------------------|----------------------------------|
--0-0-0-0-0-0-0-0-0-0-0-0-0-0-0-0-|----------------------------------|
----------------------------------|----------------------------------|
----------------------------------|--0-0-0-0-0-0-0-0-3-3-3-3-3-3-3-3-|


                                                                      
----------------------------------|----------------------------------|
--0-0-0-0-0-0-0-0-----------------|----------------------------------|
------------------0-0-0-0-0-0-0-0-|--3-3-3-3-3-3-3-3-----------------|
----------------------------------|------------------3-3-3-3-3-3-3-3-|


                                                           
----------------------------------|---|---|---|---|---|---|
--0-0-0-0-0-0-0-0-0-0-0-0-0-0-0-0-|---|---|---|---|---|---|
----------------------------------|---|---|---|---|---|---|
----------------------------------|---|---|---|---|---|---|


                                                                  
------------------------------|----------------------------------|
------0-0-0-0-0-0-0-0-0-0-0-0-|----------------------------------|
------------------------------|----------------------------------|
------------------------------|--0-0-0-0-0-0-0-0-3-3-3-3-5-7-5-3-|


                                                                      
----------------------------------|----------------------------------|
----------------------------------|----------------------------------|
----------------------------------|----------------------------------|
--5-5-5-5-5-5-5-5-5-5-5-5-5-5-5-5-|--8-8-8-8-8-8-8-8-3-3-3-3-5-7-5-3-|


                                                                      
----------------------------------|----------------------------------|
----------------------------------|----------------------------------|
--0-0-0-0-0-0-0-0-5-5-5-5-5-5-5-5-|----------------------------------|
----------------------------------|--0-0-0-0-0-0-0-0-3-3-3-3-5-7-5-3-|


                                                                      
----------------------------------|----------------------------------|
----------------------------------|----------------------------------|
----------------------------------|----------------------------------|
--5-5-5-5-5-5-5-5-5-5-5-5-5-5-5-5-|--8-8-8-8-8-8-8-8-3-3-3-3-5-7-5-3-|


                                                                      
----------------------------------|----------------------------------|
----------------------------------|----------------------------------|
--0-0-0-0-0-0-0-0-5-5-5-5-5-5-5-5-|----------------------------------|
----------------------------------|--0-0-0-0-0-0-0-0-3-3-3-3-5-7-5-3-|


                                                                      
----------------------------------|----------------------------------|
----------------------------------|----------------------------------|
----------------------------------|----------------------------------|
--5-5-5-5-5-5-5-5-5-5-5-5-5-5-5-5-|--8-8-8-8-8-8-8-8-3-3-3-3-5-7-5-3-|


                                                                      
----------------------------------|----------------------------------|
----------------------------------|----------------------------------|
--0-0-0-0-0-0-0-0-5-5-5-5-5-5-5-5-|----------------------------------|
----------------------------------|--0-0-0-0-0-0-0-0-3-3-3-3-5-7-5-3-|


                                                                      
----------------------------------|----------------------------------|
----------------------------------|----------------------------------|
----------------------------------|----------------------------------|
--5-5-5-5-5-5-5-5-5-5-5-5-5-5-5-5-|--8-8-8-8-8-8-8-8-3-3-3-3-5-7-5-3-|


                                                        
----------------------------------|--------------------|
----------------------------------|--------------------|
--0-0-0-0-0-0-0-0-5-5-5-5-5-5-5-5-|--------------------|
----------------------------------|--0--------3--------|


                                              
------------------------|-------------------||
------------------------|-------------------||
------------------------|--4----------------||
--5--7--5--3------------|-------------------||


Enjoy playing!
            
Submit corrections

comments powered by Disqus
↑ Back to top | H.I.M Bass for Don Let It Go. Lyrics for acoustic guitar and electric guitar. 1 Tablatures and chords are parodies/interpretations of the original songs. You may use it for private study, scholarship, research or language learning purposes only