>
 >
Close To The Flame 3

Close To The Flame 3 Bass Tabs

H.I.M - Close To The Flame 3 chords, tabs, tablatures, lyrics

Guitar lessons | Add/correct | Request | Top 50 tabs Artists:  A B C D E F G H I J K L M N O P Q R S T U V W X Y Z 0-9

Close To The Flame 3 Bass Tabs – H.I.M

CD, Sheet music, Poster

Do you like Close To The Flame 3? Share with your friends now
Bass TabsBass Tabs v2Bass Tabs v3ChordsChords v2Drum TabsTabsTabs v2Tabs v3Tabs v4UkuleleUkulele v2
#------------------------------------------------------------------------------##

                          CLOSE TO THE FLAME (Bassline)
                              As recorded by H.I.M.
          (From the 2001 Album DEEP SHADOWS AND BRILLIANT HIGHLIGHTS )

Words and Music by Ville Valo
Arranged by H.I.M

Gtr I (E A D G) - 'Bass'
Gtr II (E A D G B E) - 'Synthstring'
Gtr III (E A D G B E) - 'Whistle'

 Intro
  Q=89
 4/4
  Gtr I
  Wx4
|--------|
|--------|
|--------|
|--------|


  Gtr I
   Q.   Q  E E E    Q.   Q  E E E   Q.   Q  E E E    Q.    Q   E  +Q
|----------------|----------------|---------------|---------------------|
|----------------|----------------|---------------|---------------------|
|----------------|----------------|---------------|---------------------|
|--0----0--0-0-2-|--7----7--7-5-7-|-8----8--8-7-8-|-10----10--10-(10)S==|
|
| Gtr II
|  W                W               W                W
|-12-------------|-19-------------|-8-------------|-10------------------|
|----------------|----------------|---------------|---------------------|
|----------------|----------------|---------------|---------------------|
|----------------|----------------|---------------|---------------------|
|----------------|----------------|---------------|---------------------|
|----------------|----------------|---------------|---------------------|


   1st & 2nd Verse
    H.      E E    Q.   Q.   E E   Q.   H    E   Q  Q  Q  Q
||--------------|----------------|-------------|--------------|
||o-------------|----------------|-------------|--------------|
||o---------5-7-|--5----5----0-2-|-------------|--------------|
||--0-----------|----------------|-5----5----5-|-5--7--5--3---|
|
|   W              W               W             H     H
||--------------|----------------|-8-----------|-7-----5------|
||o-8-----------|-10-------------|-------------|--------------|
||--------------|----------------|-------------|--------------|
||--------------|----------------|-------------|--------------|
||o-------------|----------------|-------------|--------------|
||--------------|----------------|-------------|--------------|


   H.        E E   Q.   Q.     E E   Q.   H    E   Q  Q  Q  Q
|----------------|-----------------|-------------|-------------|
|----------------|-----------------|-------------|-------------|
|-/7---------5-7-|-5----5------0-2-|-------------|-------------|
|----------------|-----------------|-5----5----5-|-5--7--5--3--|
|
|  H     E E E E   H       E E E E   W             W
|--3-----5-3-2-3-|-2-------3-2-0-2-|-0-----------|-2-----------|
|----------------|-----------------|-------------|-------------|
|----------------|-----------------|-------------|-------------|
|----------------|-----------------|-------------|-------------|
|----------------|-----------------|-------------|-------------|
|----------------|-----------------|-------------|-------------|


   H.      E E   Q.   Q.   E E   Q.   H    E   Q  Q  Q  Q
|--------------|---------------|-------------|-------------|
|--------------|---------------|-------------|-------------|
|-/7-------5-7-|-5----5----0-2-|-------------|-------------|
|--------------|---------------|-5----5----5-|-5--7--5--3--|
|
|  W             W               W             H     H
|--3-----------|-5-------------|-8-----------|-7-----5-----|
|--------------|---------------|-------------|-------------|
|--------------|---------------|-------------|-------------|
|--------------|---------------|-------------|-------------|
|--------------|---------------|-------------|-------------|
|--------------|---------------|-------------|-------------|


   H.        E E   Q.   Q.     E E   Q.   H    E   E E E E E E Q
|----------------|-----------------|-------------|-----------------|
|----------------|-----------------|-------------|-----------------|
|-/7---------5-7-|-5----5------0-2-|-------------|-----------------|
|----------------|-----------------|-5----5----5-|-7-7-7-7-7-7-7S==|
|
|  H     E E E E   H       E E E E   W             W
|--3-----5-3-2-3-|-2-------3-2-0-2-|-0-----------|-2---------------|
|----------------|-----------------|-------------|-----------------|
|----------------|-----------------|-------------|-----------------|
|----------------|-----------------|-------------|-----------------|
|----------------|-----------------|-------------|-----------------|
|----------------|-----------------|-------------|-----------------|


 Chorus
   Q.   Q  E E E    Q.   Q  E E E   Q.   Q  E E E    Q.    Q   E  +Q
|----------------|----------------|---------------|--------------------|
|----------------|----------------|---------------|--------------------|
|----------------|----------------|---------------|--------------------|
|--0----0--0-0-2-|--7----7--7-5-7-|-8----8--8-7-8-|-10----10--10-(10)--|
|
|  W                W               W                W
|-12-------------|-19-------------|-8-------------|-10-----------------|
|----------------|----------------|---------------|--------------------|
|----------------|----------------|---------------|--------------------|
|----------------|----------------|---------------|--------------------|
|----------------|----------------|---------------|--------------------|
|----------------|----------------|---------------|--------------------|


   Q.   Q  E E E    Q.   Q  E E E   Q.   Q  E E E    Q.    Q   E  +Q
|----------------|----------------|---------------|---------------------||
|----------------|----------------|---------------|--------------------o||
|----------------|----------------|---------------|--------------------o||
|--0----0--0-0-2-|--7----7--7-5-7-|-8----8--8-7-8-|-10----10--10-(10)---||
|
|  W                W               W                W
|-12-------------|-19-------------|-8-------------|-10------------------||
|----------------|----------------|---------------|--------------------o||
|----------------|----------------|---------------|---------------------||
|----------------|----------------|---------------|---------------------||
|----------------|----------------|---------------|--------------------o||
|----------------|----------------|---------------|---------------------||


 Guitar Solo
   Q.   Q  E E E    Q.   Q  E E E    Q.   Q  E E E    Q.   Q  E E E
|----------------|----------------|----------------|----------------|
|----------------|----------------|----------------|----------------|
|----------------|----------------|----------------|----------------|
|--0----0--0-0-0-|--0----0--0-0-2-|--7----7--7-7-7-|--7----7--7-5-7-|
|
| Gtr II
|  W                W                W                W
|-19-------------|-17-------------|-15-------------|-14-------------|
|-17-------------|-15-------------|-13-------------|-12-------------|
|----------------|----------------|----------------|----------------|
|----------------|----------------|----------------|----------------|
|----------------|----------------|----------------|----------------|
|----------------|----------------|----------------|----------------|


   Q.   Q  E E E    Q.   Q  E E E    Q.    Q   Q.      H     H
|----------------|----------------|-----------------|-------------|
|----------------|----------------|-----------------|-------------|
|----------------|----------------|-----------------|-------------|
|--8----8--8-8-8-|--8----8--8-7-8-|-10----10--10----|-10\---------|
|
|                                                      <
|  W                W                W                 W
|-19-------------|-17-------------|-15--------------|-14----------|
|-17-------------|-15-------------|-13--------------|-12----------|
|----------------|----------------|-----------------|-------------|
|----------------|----------------|-----------------|-------------|
|----------------|----------------|-----------------|-------------|
|----------------|----------------|-----------------|-------------|


 Chorus
   Q.   Q  E E E    Q.   Q  E E E    Q.   Q  E E E    Q.    Q   E  +Q
|----------------|----------------|----------------|--------------------|
|----------------|----------------|----------------|--------------------|
|----------------|----------------|----------------|--------------------|
|--0----0--0-0-2-|--7----7--7-5-7-|--8----8--8-7-8-|-10----10--10-(10)--|
|
|  W                W                W                W
|-19-------------|-26-------------|-15-------------|-17-----------------|
|-17-------------|-24-------------|-13-------------|-15-----------------|
|----------------|----------------|----------------|--------------------|
|----------------|----------------|----------------|--------------------|
|----------------|----------------|----------------|--------------------|
|----------------|----------------|----------------|--------------------|


   Q.   Q  E E E    Q.   Q  E E E    Q.   Q  E E E    Q.    Q   E  +Q
|----------------|----------------|----------------|--------------------|
|----------------|----------------|----------------|--------------------|
|----------------|----------------|----------------|--------------------|
|--0----0--0-0-2-|--7----7--7-5-7-|--8----8--8-7-8-|-10----10--10-(10)--|
|
|  W                W                W                W
|-19-------------|-26-------------|-15-------------|-17-----------------|
|-17-------------|-24-------------|-13-------------|-15-----------------|
|----------------|----------------|----------------|--------------------|
|----------------|----------------|----------------|--------------------|
|----------------|----------------|----------------|--------------------|
|----------------|----------------|----------------|--------------------|


 Out-Chorus
  Gtr I
   Q.   Q     E  E  E    Q.   Q     E  E  E
|---------------------|---------------------|
|---------------------|---------------------|
|---------------------|---------------------|
|--0----0-----0--0--2-|--7----7-----7--5--7-|
|
| Gtr II
|  W                     W
|-19------------------|-26------------------|
|-17------------------|-24------------------|
|---------------------|---------------------|
|---------------------|---------------------|
|---------------------|---------------------|
|---------------------|---------------------|
|
| Gtr III
|  H       E  E  E  E    H       E  E  E  E
|-15------17-15-14-15-|-14------15-14-12-14-|
|---------------------|---------------------|
|---------------------|---------------------|
|---------------------|---------------------|
|---------------------|---------------------|
|---------------------|---------------------|


   Q.   Q  E E E    Q.    Q   E  +Q
|----------------|--------------------|
|----------------|--------------------|
|----------------|--------------------|
|--8----8--8-7-8-|-10----10--10-(10)--|
|
|  W                W
|-15-------------|-17-----------------|
|-13-------------|-15-----------------|
|----------------|--------------------|
|----------------|--------------------|
|----------------|--------------------|
|----------------|--------------------|
|
|  W                W
|-12-------------|-14-----------------|
|----------------|--------------------|
|----------------|--------------------|
|----------------|--------------------|
|----------------|--------------------|
|----------------|--------------------|


   Q.   Q     E  E  E    Q.   Q     E  E  E
|---------------------|---------------------|
|---------------------|---------------------|
|---------------------|---------------------|
|--0----0-----0--0--2-|--7----7-----7--5--7-|
|
|  W                     W
|-19------------------|-26------------------|
|-17------------------|-24------------------|
|---------------------|---------------------|
|---------------------|---------------------|
|---------------------|---------------------|
|---------------------|---------------------|
|
|  H       E  E  E  E    H       E  E  E  E
|-15------17-15-14-15-|-14------15-14-12-14-|
|---------------------|---------------------|
|---------------------|---------------------|
|---------------------|---------------------|
|---------------------|---------------------|
|---------------------|---------------------|


  H.=H
   Q.   Q  E E E    Q.    Q   E  +Q      W
|----------------|--------------------|-------*|
|----------------|--------------------|-------*|
|----------------|--------------------|-------*|
|--8----8--8-7-8-|-10----10--10-(10)--|--0----*|
|
|  W                W                    W
|-15-------------|-17-----------------|-19----*|
|-13-------------|-15-----------------|-17----*|
|----------------|--------------------|-------*|
|----------------|--------------------|-------*|
|----------------|--------------------|-------*|
|----------------|--------------------|-------*|
|
|  W                W                    W
|-12-------------|-14-----------------|-12----*|
|----------------|--------------------|-------*|
|----------------|--------------------|-------*|
|----------------|--------------------|-------*|
|----------------|--------------------|-------*|
|----------------|--------------------|-------*|


Duration Legend
---------------
W - whole; H - half; Q - quarter; E - 8th; S - 16th; T - 32nd; X - 64th; a - acciaccatura
+ - note tied to previous; . - note dotted; .. - note double dotted
Uncapitalized letters represent notes that are staccato (1/2 duration)
Irregular groupings are notated above the duration line
Duration letters will always appear directly above the note/fret number it represents the
duration for.  Duration letters with no fret number below them represent rests.  Multi-
bar rests are notated in the form Wxn, where n is the number of bars to rest for.  Low
melody durations appear below the staff

Tablature Legend
----------------
 h   - hammer-on
 p   - pull-off
 b   - bend
 pb  - pre-bend
 r   - bend release (if no number after the r, then release immediately)
 /\  - slide into or out of (from/to "nowhere")
 s   - legato slide
 S   - shift slide
  - natural harmonic
[n]  - artificial harmonic
n(n) - tapped harmonic
 ~   - vibrato
 tr  - trill
 T   - tap
 TP  - trem. picking
 PM  - palm muting
\n/  - tremolo bar dip; n = amount to dip
 \n  - tremolo bar down
 n/  - tremolo bar up
/n\  - tremolo bar inverted dip
 =   - hold bend; also acts as connecting device for hammers/pulls
 <>  - volume swell (louder/softer)
 x   - on rhythm slash represents muted slash
 o   - on rhythm slash represents single note slash

Misc Legend
-----------
 |  - bar
||  - double bar
||o - repeat start
o|| - repeat end
*|  - double bar (ending)
 :  - bar (freetime)
 $  - Segno
 &  - Coda
Tempo markers -  = BPM(8/16=s8/s16), where s8 = swing 8ths, s16 = swing 16ths





Comments


Popular H.I.M tabs & chords
Our Diabolikal Rapture Bass Tabs
Gone With The Sin Chords
Poison Girl Chords
Salt In Our Wounds 3 Chords
Scared To Death 2 Chords
Shatter Me With Hope Tabs
Soul On Fire 1 Tabs
Your Sweet 666 1 Tabs
Behind The Crimson Door Ukulele
Its All Tears Ukulele


Song lyrics



↑ Back to top | Tablatures and chords are parodies/interpretations of the original songs. You may use it for private study, scholarship, research or language learning purposes only
© 2014 AZChords.com Contact us | Privacy policy | DMCA | Add/correct tabs | Request tabs | Top 50 tabs