» » »

H.I.M, Close To The Flame Tabs (ver.3)

Artists:  A B C D E F G H I J K L M N O P Q R S T U V W X Y Z # 

Close To The Flame Tabs (ver.3)

H.I.M Tabs
Rating:
0/5 (0 votes)
Close To The Flame lessons Tabs too difficult? Try these video lessons and learn fast
                Him- Close To The Flame

Intro
|----------------------------------------------------------|
|----------------------------------------------------------|
|----------------------------------------------------------|
|-4-4-4-4-4---9-9-9-9-9---10-10-10-10-10---12-12-12-12-12--|
|-4-4-4-4-4---9-9-9-9-9---10-10-10-10-10---12-12-12-12-12--|
|-2-2-2-2-2---7-7-7-7-7----8--8--8--8--8---10-10-10-10-10--|

Chorus
|----------------------------------------------------------|
|----------------------------------------------------------|
|----------------------------------------------------------|
|-2-2-2-2-2---9-9-9-9-9---10-10-10-10-10---12-12-12-12-12--|
|-2-2-2-2-2---9-9-9-9-9---10-10-10-10-10---12-12-12-12-12--|
|-0-0-0-0-0---7-7-7-7-7---8--8---8--8--8---10-10-10-10-10--|

Solo
|------------------------------|
|------------------------------|
|------------------------------|
|------------------------------|
|------------------------------|
|-7~-7-5-7-9-5-5-7-2-3-7-9-9~--|

End
|-------------|
|-------------|
|-------------|
|-14--~-------|
|-14--~-------|
|-12--~-------|
This is prolly completley wrong but it sounds alright
            
Submit corrections

comments powered by Disqus
↑ Back to top | H.I.M Tabs for Close To The Flame. Lyrics for acoustic guitar and electric guitar. Tablatures and chords are parodies/interpretations of the original songs. You may use it for private study, scholarship, research or language learning purposes only