» » »

Circle Of Fear Tabs (ver.4)

Artists:  A B C D E F G H I J K L M N O P Q R S T U V W X Y Z # 

Circle Of Fear Tabs (ver.4)

H.I.M
Rating:
0/5 (0 votes)

Hard to play? Try these video lessons and learn fast.
                Intro

e|-------------------------------------------------------------------|
B|-------------------------------------------------------------------|
G|------------2-----1------2------0------2------2---------2--0-0-----|
D|-5-5-7----2---2--------2---2---------2---2---------------------2---|X 4
A|-5-5-7--0-------0----0-------0-----0-------0--------0-0------------|
E|-3-3-5-------------------------------------------------------------|


Verse

e|---------------------------------------------------|
B|------1---------1--------1--------1------1--0------|
G|--------2---------2--------2--------2--------------|
D|---2----------2--------2--------2------2-----------| Play till chorus
A|-0----------3--------0--------0------0-------------|
E|---------------------------------------------------|


Chorus

   F  G  Am F  G Am
e|----------1--3--------------------------|
B|-------1--1--3--1-1---------------------|
G|-------2--2-----2-2---------------------|
D|-3--5--2--3-----2-2---------------------| X 2 (It really dusnt matter how
A|-3--5-----3--2--------------------------|      you play F and G but I 
E|-1--3--------3--------------------------|      tabbed it out that way 
                                                 for variety) 


Verse (again play till chorus)


Chorus   


Bridge "Is the circle of regret...."

 
Verse


Chorus


Outro 

e|-------------------------------------------------------------------|
B|-------------------------------------------------------------------| play
G|------------2-----1------2------0------2------2---------2--0-0-----| till
D|----------2---2--------2---2---------2---2---------------------2---| song
A|--------0-------0----0-------0-----0-------0--------0-0------------|finshes
E|-------------------------------------------------------------------|

Thats it!.....i'm not sure if how accurate it is but it sounds right when i play it!.....Enjoy!
            
Hard to play? Try these video lessons and learn fast. | Correct




comments powered by Disqus
↑ Back to top | Tablatures and chords are parodies/interpretations of the original songs. You may use it for private study, scholarship, research or language learning purposes only