» » »

Bury Me Deep Inside Your Heart Bass tabs (ver.1)

Artists:  A B C D E F G H I J K L M N O P Q R S T U V W X Y Z # 

Bury Me Deep Inside Your Heart Bass tabs (ver.1)

H.I.M
Rating:
0/5 (0 votes)

Hard to play? Try these video lessons and learn fast.
                HIM Bury Me Deep Inside Your Heart (Razorblade Romance)


this is tabbed from a live version, should apply to the album track pretty much.  i’ve not tabbed the exact number of notes to save time but listen to the track to figure it out

intro

G-------------------------------------------------------------------
D-6-6-7-7-2-4-------------------------------------------------------
A-------------2-2-2-2-2-4-4-5-5-5-5-5-5-7-7-9-9-9-9-9-9-7-7-7-7-7-7-
E-------------------------------------------------------------------
repeat

verse

G------------------------------------------------
D-------------7-7-7-7-7--------------------------
A-5-5-5-5-5-5-----------4-4-4-4-4-5-5-5-5-5-5-5--
E------------------------------------------------ repeat thru verse

chorus

G-------------------------------------------------------------------
D-6-6-7-7-2-4-------------------------------------------------------
A-------------2-2-2-2-2-4-4-5-5-5-5-5-5-7-7-9-9-9-9-9-9-7-7-7-7-7-7-
E-------------------------------------------------------------------

G-------------------------------------------------------
D-------------------------------------------------------
A-2-2-2-2-2-4-4-5-5-5-5-5-5-7-7-9-9-9-9-9-9-7-7-7-7-7-7-
E-------------------------------------------------------

verse

chorus again

pause

G-----------------
D-----------------
A-5-5-5-5-5-5-5-5-
E-----------------

G-------------------------------------------------------
D-------------------------------------------------------
A-2-2-2-2-2-4-4-5-5-5-5-5-5-7-7-9-9-9-9-9-9-7-7-7-7-7-7-
E-------------------------------------------------------
            
Hard to play? Try these video lessons and learn fast. | Correct




comments powered by Disqus
↑ Back to top | Tablatures and chords are parodies/interpretations of the original songs. You may use it for private study, scholarship, research or language learning purposes only