» » »

H.I.M, Buried Alive By Love Tabs (ver.6)

Artists:  A B C D E F G H I J K L M N O P Q R S T U V W X Y Z # 

Buried Alive By Love Tabs (ver.6)

H.I.M Tabs
 Rating:
4/5 (4 votes)
Buried Alive By Love lessons Tabs too difficult? Try these video lessons and learn fast
                H.I.M. - Buried Alive by Love
Listen to the song and follow the tab, dont assume the verses, pre-chorus' and chorus' 
all the same. They change.

Drop D (D A D G B E)

-Legend-
/=Slide
//=Pick scr*pe
~=Let the note ring
x=Mute the note

E|---------------------------------||
B|---------------------------------||
G|---------------------------------||
D|---------------------------------||
A|-5-2-2-2-2-2-2-5-2-2-2-2-2-2-2-2-||
D|-5-2-2-2-2-2-2-5-2-2-2-2-2-2-2-2-||8x

[Verse 1]
(Keyboards)

|-------------------------------------------------||
|-------------------------------------------------||
|-------------------14/16-16-16-16-16-16-16-16----||
|-------------------x-/x--x--x--x--x--x--x--x-----||
|-5-2-2-2-2-2-2-5-2-12/14-14-14-14-14-14-14-14-2~-||
|-5-2-2-2-2-2-2-5-2----------------------------2~-||1x

(Dive bomb sound, pretty sure its the keyboard) or just go 10/ on the B string.

[Pre-Chorus]
|------------------------------------||
|------------------------------------||
|------------------------------------||
|-7~---------------------------------||
|-7~-5-2-2-2-2-2-2-5-2-2-2-2-2-2-2-2-||
|-7~-5-2-2-2-2-2-2-5-2-2-2-2-2-2-2-2-||2x

|--------------------------------------||
|--------------------------------------||
|--------------------------------------||
|-7~//---------------------------------||
|-7~//-5-2-2-2-2-2-2-5-2-2-2-2-2-2-2-2-||
|-7~//-5-2-2-2-2-2-2-5-2-2-2-2-2-2-2-2-||1x

|--------------------||
|--------------------||
|-7~-7-7-7-7-7-7-7-7-||
|-7~-7-7-7-7-7-7-7-7-||
|-5~-5-5-5-5-5-5-5-5-||
|--------------------||1x

[Chorus]
|-----------------------------------------------------------------------------------------||
|-----------------------------------------------------------------------------------------||
|-9-9-9-9-9-9-9-9-11-11-11-11-11-11-11-11-12-12-12-12-12-12-12-12-11-11-11-11-11-11-11-11-||
|-x-x-x-x-x-x-x-x-x--x--x--x--x--x--x--x--x--x--x--x--x--x--x--x--x--x--x--x--x--x--x--x--||
|-7-7-7-7-7-7-7-7-9--9--9--9--9--9--9--9--10-10-10-10-10-10-10-10-9--9--9--9--9--9--9--9--||
|-----------------------------------------------------------------------------------------||1x

|--------||
|--------||
|--------||
|--------||
|-2~-5-0-||
|-2~-5-0-||1x

|---------------------------------------------------------------------------------||
|---------------------------------------------------------------------------------||
|-12-12-12-12-12-12-12-12-11-11-11-11-11-11-11-11-9-9-9-9-9-9-9-9-7-7-7-7-7-7-7-7-||
|-x--x--x--x--x--x--x--x--x--x--x--x--x--x--x--x--x-x-x-x-x-x-x-x-x-x-x-x-x-x-x-x-||
|-10-10-10-10-10-10-10-10-9--9--9--9--9--9--9--9--7-7-7-7-7-7-7-7-5-5-5-5-5-5-5-5-||
|---------------------------------------------------------------------------------||1x

|--------||
|--------||
|--------||
|--------||
|-2~-4-5-||
|-2~-4-5-||1x

|-----------------------------------------------------------------------------------------||
|-----------------------------------------------------------------------------------------||
|-9-9-9-9-9-9-9-9-11-11-11-11-11-11-11-11-12-12-12-12-12-12-12-12-14-14-14-14-14-14-14-14-||
|-x-x-x-x-x-x-x-x-x--x--x--x--x--x--x--x--x--x--x--x--x--x--x--x--x--x--x--x--x--x--x--x--||
|-7-7-7-7-7-7-7-7-9--9--9--9--9--9--9--9--10-10-10-10-10-10-10-10-12-12-12-12-12-12-12-12-||
|-----------------------------------------------------------------------------------------||1x

|--------||
|--------||
|--------||
|--------||
|-2~-5-0-||
|-2~-5-0-||1x

|-----------------------------------------------------------------||
|-----------------------------------------------------------------||
|-9-9-9-9-9-9-9-9-7-7-7-7-7-7-7-7-5-5-5-5-5-5-5-5-4-4-4-4-4-4-4-4-||
|-x-x-x-x-x-x-x-x-x-x-x-x-x-x-x-x-x-x-x-x-x-x-x-x-x-x-x-x-x-x-x-x-||
|-7-7-7-7-7-7-7-7-5-5-5-5-5-5-5-5-3-3-3-3-3-3-3-3-2-2-2-2-2-2-2-2-||
|-----------------------------------------------------------------||1x

|---------------------------------||
|---------------------------------||
|---------------------------------||
|---------------------------------||
|-5-2-2-2-2-2-2-5-2-2-2-2-2-2-2-2-||
|-5-2-2-2-2-2-2-5-2-2-2-2-2-2-2-2-||8x

[Verse 2]
(Keyboards)

|-------------------------------------------------||
|-------------------------------------------------||
|-------------------14/16-16-16-16-16-16-16-16----||
|-------------------x-/x--x--x--x--x--x--x--x-----||
|-5-2-2-2-2-2-2-5-2-12/14-14-14-14-14-14-14-14-2~-||
|-5-2-2-2-2-2-2-5-2----------------------------2~-||1x

(Dive bomb sound again)

[Pre-Chorus]
|------------------------------------||
|------------------------------------||
|------------------------------------||
|-7~---------------------------------||
|-7~-5-2-2-2-2-2-2-5-2-2-2-2-2-2-2-2-||
|-7~-5-2-2-2-2-2-2-5-2-2-2-2-2-2-2-2-||2x

|--------------------------------------||
|--------------------------------------||
|--------------------------------------||
|-7~//---------------------------------||
|-7~//-5-2-2-2-2-2-2-5-2-2-2-2-2-2-2-2-||
|-7~//-5-2-2-2-2-2-2-5-2-2-2-2-2-2-2-2-||1x

|--------------------||
|--------------------||
|-7~-7-7-7-7-7-7-7-7-||
|-7~-7-7-7-7-7-7-7-7-||
|-5~-5-5-5-5-5-5-5-5-||
|--------------------||1x

[Chorus]
|-----------------------------------------------------------------------------------------||
|-----------------------------------------------------------------------------------------||
|-9-9-9-9-9-9-9-9-11-11-11-11-11-11-11-11-12-12-12-12-12-12-12-12-14-14-14-14-14-14-14-14-||
|-x-x-x-x-x-x-x-x-x--x--x--x--x--x--x--x--x--x--x--x--x--x--x--x--x--x--x--x--x--x--x--x--||
|-7-7-7-7-7-7-7-7-9--9--9--9--9--9--9--9--10-10-10-10-10-10-10-10-12-12-12-12-12-12-12-12-||
|-----------------------------------------------------------------------------------------||1x

|--------||
|--------||
|--------||
|--------||
|-2~-5-0-||
|-2~-5-0-||1x

|---------------------------------------------------------------------------------||
|---------------------------------------------------------------------------------||
|-12-12-12-12-12-12-12-12-11-11-11-11-11-11-11-11-9-9-9-9-9-9-9-9-7-7-7-7-7-7-7-7-||
|-x--x--x--x--x--x--x--x--x--x--x--x--x--x--x--x--x-x-x-x-x-x-x-x-x-x-x-x-x-x-x-x-||
|-10-10-10-10-10-10-10-10-9--9--9--9--9--9--9--9--7-7-7-7-7-7-7-7-5-5-5-5-5-5-5-5-||
|---------------------------------------------------------------------------------||1x

|--------||
|--------||
|--------||
|--------||
|-2~-4-5-||
|-2~-4-5-||1x

|-----------------------------------------------------------------------------------------||
|-----------------------------------------------------------------------------------------||
|-9-9-9-9-9-9-9-9-11-11-11-11-11-11-11-11-12-12-12-12-12-12-12-12-14-14-14-14-14-14-14-14-||
|-x-x-x-x-x-x-x-x-x--x--x--x--x--x--x--x--x--x--x--x--x--x--x--x--x--x--x--x--x--x--x--x--||
|-7-7-7-7-7-7-7-7-9--9--9--9--9--9--9--9--10-10-10-10-10-10-10-10-12-12-12-12-12-12-12-12-||
|-----------------------------------------------------------------------------------------||1x

|--------||
|--------||
|--------||
|--------||
|-2~-5-0-||
|-2~-5-0-||1x

|---------------------------------------------------------------------------------||
|---------------------------------------------------------------------------------||
|-12-12-12-12-12-12-12-12-11-11-11-11-11-11-11-11-9-9-9-9-9-9-9-9-7-7-7-7-7-7-7-7-||
|-x--x--x--x--x--x--x--x--x--x--x--x--x--x--x--x--x-x-x-x-x-x-x-x-x-x-x-x-x-x-x-x-||
|-10-10-10-10-10-10-10-10-9--9--9--9--9--9--9--9--7-7-7-7-7-7-7-7-5-5-5-5-5-5-5-5-||
|---------------------------------------------------------------------------------||1x

[Break]
|-----||
|-----||
|-----||
|-----||
|-2-2-||
|-2-2-||4x

[Pre-Chorus]
|------------------------------------||
|------------------------------------||
|------------------------------------||
|-7~---------------------------------||
|-7~-5-2-2-2-2-2-2-5-2-2-2-2-2-2-2-2-||
|-7~-5-2-2-2-2-2-2-5-2-2-2-2-2-2-2-2-||3x

|-----------------------||
|-----------------------||
|-7~-7~-7-7-7-7-7-7-7-7-||
|-7~-7~-7-7-7-7-7-7-7-7-||
|-5~-5~-5-5-5-5-5-5-5-5-||
|-----------------------||1x

[Chorus]
|-----------------------------------------------------------------------------------------||
|-----------------------------------------------------------------------------------------||
|-9-9-9-9-9-9-9-9-11-11-11-11-11-11-11-11-12-12-12-12-12-12-12-12-11-11-11-11-11-11-11-11-||
|-x-x-x-x-x-x-x-x-x--x--x--x--x--x--x--x--x--x--x--x--x--x--x--x--x--x--x--x--x--x--x--x--||
|-7-7-7-7-7-7-7-7-9--9--9--9--9--9--9--9--10-10-10-10-10-10-10-10-9--9--9--9--9--9--9--9--||
|-----------------------------------------------------------------------------------------||1x

|--------||
|--------||
|--------||
|--------||
|-2~-5-0-||
|-2~-5-0-||1x

|---------------------------------------------------------------------------------||
|---------------------------------------------------------------------------------||
|-12-12-12-12-12-12-12-12-11-11-11-11-11-11-11-11-9-9-9-9-9-9-9-9-7-7-7-7-7-7-7-7-||
|-x--x--x--x--x--x--x--x--x--x--x--x--x--x--x--x--x-x-x-x-x-x-x-x-x-x-x-x-x-x-x-x-||
|-10-10-10-10-10-10-10-10-9--9--9--9--9--9--9--9--7-7-7-7-7-7-7-7-5-5-5-5-5-5-5-5-||
|---------------------------------------------------------------------------------||1x

|--------||
|--------||
|--------||
|--------||
|-2~-4-5-||
|-2~-4-5-||1x

|-----------------------------------------------------------------------------------------||
|-----------------------------------------------------------------------------------------||
|-9-9-9-9-9-9-9-9-11-11-11-11-11-11-11-11-12-12-12-12-12-12-12-12-14-14-14-14-14-14-14-14-||
|-x-x-x-x-x-x-x-x-x--x--x--x--x--x--x--x--x--x--x--x--x--x--x--x--x--x--x--x--x--x--x--x--||
|-7-7-7-7-7-7-7-7-9--9--9--9--9--9--9--9--10-10-10-10-10-10-10-10-12-12-12-12-12-12-12-12-||
|-----------------------------------------------------------------------------------------||1x

|--------||
|--------||
|--------||
|--------||
|-2~-5-0-||
|-2~-5-0-||1x

|---------------------------------------------------------------------------------||
|---------------------------------------------------------------------------------||
|-12-12-12-12-12-12-12-12-11-11-11-11-11-11-11-11-9-9-9-9-9-9-9-9-7-7-7-7-7-7-7-7-||
|-x--x--x--x--x--x--x--x--x--x--x--x--x--x--x--x--x-x-x-x-x-x-x-x-x-x-x-x-x-x-x-x-||
|-10-10-10-10-10-10-10-10-9--9--9--9--9--9--9--9--7-7-7-7-7-7-7-7-5-5-5-5-5-5-5-5-||
|---------------------------------------------------------------------------------||1x

[Outro]
|---------------------------------||
|---------------------------------||
|---------------------------------||
|---------------------------------||
|-5-2-2-2-2-2-2-5-2-2-2-2-2-2-2-2-||
|-5-2-2-2-2-2-2-5-2-2-2-2-2-2-2-2-||15x
(A solo goes along with the outro but its too faint for me to figure out)
            
Submit corrections

comments powered by Disqus
↑ Back to top | H.I.M Tabs for Buried Alive By Love. Lyrics for acoustic guitar and electric guitar. Tablatures and chords are parodies/interpretations of the original songs. You may use it for private study, scholarship, research or language learning purposes only