» » »

H.I.M, Buried Alive By Love Bass tabs (ver.3)

Artists:  A B C D E F G H I J K L M N O P Q R S T U V W X Y Z # 

Buried Alive By Love Bass tabs (ver.3)

H.I.M Tabs
Rating:
0/5 (0 votes)
Hard to play? Try these video lessons and learn fast.
                #------------------------------------------------------------------------------##

                         BURIED ALIVE BY LOVE (Bassline)
                              As recorded by H.I.M.
                        (From the 2003 Album LOVE METAL)

Words by Ville Valo

Music by HIM
Arranged by HIM

Gtr I (E A D G) - 'Mige'

   Intro
    Q=172
   4/4
    Gtr I
    E E E E E E E E   E E E E E E E E   E E E E E E E E   E E E E E E E E   4x
||------------------|-----------------|-----------------|-------------------||
||o-----------------|-----------------|-----------------|------------------o||
||o-----------------|-----------------|-----------------|------------------o||
||--3-0-0-0-0-0-0-3-|-3-0-0-0-0-0-0-0-|-3-0-0-0-0-0-0-3-|-3-0-0-0-0-0-0-0---||


   Verse
    Q.   Q  E E E   Q.   Q  E E E   Q.   Q  E E E   Q.   Q  E E E  4x
||----------------|---------------|---------------|----------------||
||o---------------|---------------|---------------|---------------o||
||o---------------|---------------|---------------|---------------o||
||--0----0--0-0-0S|=8----8--8-8-8S|=0----0--0-0-0S|=8----8--8-8-8--||


   Pre-Chorus
    W          +W           E E E E E E E E   E E E E E E E E  3x
||-----------|------------|-----------------|------------------||
||o----------|------------|-----------------|-----------------o||
||o----------|------------|-----------------|-----------------o||
||--5--------|-(5)--------|-3-0-0-0-0-0-0-3-|-3-0-0-0-0-0-0-0--||


  W          +W           E E E E E E E E   W
|----------|------------|-----------------|------|
|----------|------------|-----------------|------|
|-5--------|-(5)--------|-5-5-5-5-5-5-5-5-|------|
|----------|------------|-----------------|------|


 Chorus
  E E E E E E E E   E E E E E E E E
|-----------------|-----------------|
|-----------------|-----------------|
|-7-7-7-7-7-7-7-7-|-9-9-9-9-9-9-9-9-|
|-----------------|-----------------|


   E  E  E  E  E  E  E  E   E E E E E E E E
|-------------------------|------------------|
|-------------------------|------------------|
|-10-10-10-10-10-10-10-10-|-9-9-9-9-9-9-9-9--|
|-------------------------|------------------|


  Q  Q.   E E E   +E  E Q  Q  E E    E  E  E  E  E  E  E  E   E E E E E E E E
|---------------|-----------------|-------------------------|------------------|
|---------------|-----------------|-------------------------|------------------|
|---------------|----------5--5-5-|-10-10-10-10-10-10-10-10-|-9-9-9-9-9-9-9-9--|
|-0--0----0-0-3-|-(3)-3-3---------|-------------------------|------------------|


  E E E E E E E E   E E E E E E E E   Q  Q.   E E E   +E  E Q  Q  E E
|-----------------|-----------------|---------------|------------------|
|-----------------|-----------------|---------------|------------------|
|-7-7-7-7-7-7-7-7-|-5-5-5-5-5-5-5-5-|---------------|----------5--5-5--|
|-----------------|-----------------|-0--0----0-0-3-|-(3)-3-3----------|


  E E E E E E E E   E E E E E E E E
|-----------------|-----------------|
|-----------------|-----------------|
|-7-7-7-7-7-7-7-7-|-9-9-9-9-9-9-9-9-|
|-----------------|-----------------|


   E  E  E  E  E  E  E  E    E  E  E  E  E  E  E  E
|-------------------------|--------------------------|
|-------------------------|--------------------------|
|-10-10-10-10-10-10-10-10-|-12-12-12-12-12-12-12-12--|
|-------------------------|--------------------------|


  Q  Q.   E E E   +E  E Q  Q  E E    E  E  E  E  E  E  E  E   E E E E E E E E
|---------------|-----------------|-------------------------|------------------|
|---------------|-----------------|-------------------------|------------------|
|---------------|----------5--5-5-|-10-10-10-10-10-10-10-10-|-9-9-9-9-9-9-9-9--|
|-0--0----0-0-3-|-(3)-3-3---------|-------------------------|------------------|


  E E E E E E E E   E E E E E E E E
|-----------------|-----------------|
|-----------------|-----------------|
|-7-7-7-7-7-7-7-7-|-5-5-5-5-5-5-5-5-|
|-----------------|-----------------|


   Pre-Verse
    E E E E E E E E   E E E E E E E E   E E E E E E E E   E E E E E E E E  4x
||------------------|-----------------|-----------------|------------------||
||o-----------------|-----------------|-----------------|-----------------o||
||o-----------------|-----------------|-----------------|-----------------o||
||--3-0-0-0-0-0-0-3-|-3-0-0-0-0-0-0-0-|-3-0-0-0-0-0-0-3-|-3-0-0-0-0-0-0-0--||


   Verse
    Q.   Q  E E E   Q.   Q  E E E   Q.   Q  E E E   Q.   Q  E E E  4x
||----------------|---------------|---------------|----------------||
||o---------------|---------------|---------------|---------------o||
||o---------------|---------------|---------------|---------------o||
||--0----0--0-0-0S|=8----8--8-8-8S|=0----0--0-0-0S|=8----8--8-8-8--||


   Pre-Chorus
    W          +W           E E E E E E E E   E E E E E E E E  3x
||-----------|------------|-----------------|------------------||
||o----------|------------|-----------------|-----------------o||
||o----------|------------|-----------------|-----------------o||
||--5--------|-(5)--------|-3-0-0-0-0-0-0-3-|-3-0-0-0-0-0-0-0--||


  W          +W           E E E E E E E E   W
|----------|------------|-----------------|------|
|----------|------------|-----------------|------|
|-5--------|-(5)--------|-5-5-5-5-5-5-5-5-|------|
|----------|------------|-----------------|------|


 Chorus
  E E E E E E E E   E E E E E E E E
|-----------------|-----------------|
|-----------------|-----------------|
|-7-7-7-7-7-7-7-7-|-9-9-9-9-9-9-9-9-|
|-----------------|-----------------|


   E  E  E  E  E  E  E  E   E E E E E E E E
|-------------------------|------------------|
|-------------------------|------------------|
|-10-10-10-10-10-10-10-10-|-9-9-9-9-9-9-9-9--|
|-------------------------|------------------|


  Q  Q.   E E E   +E  E Q  Q  E E    E  E  E  E  E  E  E  E   E E E E E E E E
|---------------|-----------------|-------------------------|------------------|
|---------------|-----------------|-------------------------|------------------|
|---------------|----------5--5-5-|-10-10-10-10-10-10-10-10-|-9-9-9-9-9-9-9-9--|
|-0--0----0-0-3-|-(3)-3-3---------|-------------------------|------------------|


  E E E E E E E E   E E E E E E E E   Q  Q.   E E E   +E  E Q  Q  E E
|-----------------|-----------------|---------------|------------------|
|-----------------|-----------------|---------------|------------------|
|-7-7-7-7-7-7-7-7-|-5-5-5-5-5-5-5-5-|---------------|----------5--5-5--|
|-----------------|-----------------|-0--0----0-0-3-|-(3)-3-3----------|


  E E E E E E E E   E E E E E E E E
|-----------------|-----------------|
|-----------------|-----------------|
|-7-7-7-7-7-7-7-7-|-9-9-9-9-9-9-9-9-|
|-----------------|-----------------|


   E  E  E  E  E  E  E  E    E  E  E  E  E  E  E  E
|-------------------------|--------------------------|
|-------------------------|--------------------------|
|-10-10-10-10-10-10-10-10-|-12-12-12-12-12-12-12-12--|
|-------------------------|--------------------------|


  Q  Q.   E E E   +E  E Q  Q  E E    E  E  E  E  E  E  E  E   E E E E E E E E
|---------------|-----------------|-------------------------|------------------|
|---------------|-----------------|-------------------------|------------------|
|---------------|----------5--5-5-|-10-10-10-10-10-10-10-10-|-9-9-9-9-9-9-9-9--|
|-0--0----0-0-3-|-(3)-3-3---------|-------------------------|------------------|


  E E E E E E E E   E E E E E E E E
|-----------------|-----------------|
|-----------------|-----------------|
|-7-7-7-7-7-7-7-7-|-5-5-5-5-5-5-5-5-|
|-----------------|-----------------|


   Bridge
    Q=81
    E E Q  H      E E Q  H      E E H    E S  S    E E Q  H
||--------------|-------------|------------------|--------------||
||o-------------|-------------|------------------|-------------o||
||o-------------|-------------|------------------|-------------o||
||--0-0---------|-2-2---------|-3-3----------(3)S|=2-2----------||


   Pre-Chorus
    Q=172
    W          +W           E E E E E E E E   E E E E E E E E  3x
||-----------|------------|-----------------|------------------||
||o----------|------------|-----------------|-----------------o||
||o----------|------------|-----------------|-----------------o||
||--5--------|-(5)--------|-3-0-0-0-0-0-0-3-|-3-0-0-0-0-0-0-0--||


    W          +W          3x E E E E E E E E   W
||-----------|-------------||-----------------|------|
||o----------|------------o||-----------------|------|
||o-5--------|-(5)--------o||-5-5-5-5-5-5-5-5-|------|
||-----------|-------------||-----------------|------|


 Chorus
  E E E E E E E E   E E E E E E E E
|-----------------|-----------------|
|-----------------|-----------------|
|-7-7-7-7-7-7-7-7-|-9-9-9-9-9-9-9-9-|
|-----------------|-----------------|


   E  E  E  E  E  E  E  E   E E E E E E E E
|-------------------------|------------------|
|-------------------------|------------------|
|-10-10-10-10-10-10-10-10-|-9-9-9-9-9-9-9-9--|
|-------------------------|------------------|


  Q  Q.   E E E   +E  E Q  Q  E E    E  E  E  E  E  E  E  E   E E E E E E E E
|---------------|-----------------|-------------------------|------------------|
|---------------|-----------------|-------------------------|------------------|
|---------------|----------5--5-5-|-10-10-10-10-10-10-10-10-|-9-9-9-9-9-9-9-9--|
|-0--0----0-0-3-|-(3)-3-3---------|-------------------------|------------------|


  E E E E E E E E   E E E E E E E E   Q  Q.   E E E   +E  E Q  Q  E E
|-----------------|-----------------|---------------|------------------|
|-----------------|-----------------|---------------|------------------|
|-7-7-7-7-7-7-7-7-|-5-5-5-5-5-5-5-5-|---------------|----------5--5-5--|
|-----------------|-----------------|-0--0----0-0-3-|-(3)-3-3----------|


  E E E E E E E E   E E E E E E E E
|-----------------|-----------------|
|-----------------|-----------------|
|-7-7-7-7-7-7-7-7-|-9-9-9-9-9-9-9-9-|
|-----------------|-----------------|


   E  E  E  E  E  E  E  E    E  E  E  E  E  E  E  E
|-------------------------|--------------------------|
|-------------------------|--------------------------|
|-10-10-10-10-10-10-10-10-|-12-12-12-12-12-12-12-12--|
|-------------------------|--------------------------|


  Q  Q.   E E E   +E  E Q  Q  E E    E  E  E  E  E  E  E  E   E E E E E E E E
|---------------|-----------------|-------------------------|------------------|
|---------------|-----------------|-------------------------|------------------|
|---------------|----------5--5-5-|-10-10-10-10-10-10-10-10-|-9-9-9-9-9-9-9-9--|
|-0--0----0-0-3-|-(3)-3-3---------|-------------------------|------------------|


  E E E E E E E E   E E E E E E E E
|-----------------|-----------------|
|-----------------|-----------------|
|-7-7-7-7-7-7-7-7-|-5-5-5-5-5-5-5-5-|
|-----------------|-----------------|


   Outro
    E E E E E E E E   E E E E E E E E   E E E E E E E E   E E E E E E E E 10x
||------------------|-----------------|-----------------|------------------||
||o-----------------|-----------------|-----------------|-----------------o||
||o-----------------|-----------------|-----------------|-----------------o||
||--3-0-0-0-0-0-0-3-|-3-0-0-0-0-0-0-0-|-3-0-0-0-0-0-0-3-|-3-0-0-0-0-0-0-0--||


Duration Legend
---------------
W - whole; H - half; Q - quarter; E - 8th; S - 16th; T - 32nd; X - 64th; a - acciaccatura
+ - note tied to previous; . - note dotted; .. - note double dotted
Uncapitalized letters represent notes that are staccato (1/2 duration)
Irregular groupings are notated above the duration line
Duration letters will always appear directly above the note/fret number it represents the
duration for.  Duration letters with no fret number below them represent rests.  Multi-
bar rests are notated in the form Wxn, where n is the number of bars to rest for.  Low
melody durations appear below the staff

Tablature Legend
----------------
 h   - hammer-on
 p   - pull-off
 b   - bend
 pb  - pre-bend
 r   - bend release (if no number after the r, then release immediately)
 /\  - slide into or out of (from/to "nowhere")
 s   - legato slide
 S   - shift slide
  - natural harmonic
[n]  - artificial harmonic
n(n) - tapped harmonic
 ~   - vibrato
 tr  - trill
 T   - tap
 TP  - trem. picking
 PM  - palm muting
\n/  - tremolo bar dip; n = amount to dip
 \n  - tremolo bar down
 n/  - tremolo bar up
/n\  - tremolo bar inverted dip
 =   - hold bend; also acts as connecting device for hammers/pulls
 <>  - volume swell (louder/softer)
 x   - on rhythm slash represents muted slash
 o   - on rhythm slash represents single note slash

Misc Legend
-----------
 |  - bar
||  - double bar
||o - repeat start
o|| - repeat end
*|  - double bar (ending)
 :  - bar (freetime)
 $  - Segno
 &  - Coda
Tempo markers -  = BPM(8/16=s8/s16), where s8 = swing 8ths, s16 = swing 16ths
            

comments powered by Disqus
↑ Back to top | H.I.M Bass for Buried Alive By Love. Lyrics for acoustic guitar and electric guitar. Tablatures and chords are parodies/interpretations of the original songs. You may use it for private study, scholarship, research or language learning purposes only